Song name
# A B C D E F G H I J K L M N O P Q R S T U V W X Y Z

Misc Unsigned Bands - J Netts - Dreamin tab

Help us improve GuitareTab! Take a short survey!
----3--------3--------3-----3--------3--------3-----2--------2--------2----|
-------3--------3--------3-----3--------3--------3-----3--------3--------3-|
----------0--------0--------------0--------0--------------2--------2-------|
----------------------------------------------------0----------------------|
----------------------------2----------------------------------------------|
----3----------------------------------------------------------------------|

----2--------2--------2-----0--------0--------0-----0--------0--------0----|
-------3--------3--------3-----0--------0--------0-----0--------0--------0-|
----------2--------2--------------0--------0--------------0--------0-------|
----0-----------------------------------------------2----------------------|
----------------------------2----------------------------------------------|
---------------------------------------------------------------------------|

----3--------3--------3-----3--------3--------3--------|
-------3--------3--------3-----3--------3--------3-----|
----------0--------0--------------0--------0-----------|
----------------------------2--------------------------|  x2
----3--------------------------------------------------|
-------------------------------------------------------|
Related for J Netts - Dreamin tab