Song name
# A B C D E F G H I J K L M N O P Q R S T U V W X Y Z

Misc Unsigned Bands - Alex Cline - Spindulum tab

(EADGBe) just some riffs I made with my old band

|----------------------------8h12h14t16p14p12p8----------------------------|
|-------------------------10-------------------10-----------------------14-|
|-----------------------9------------------------9------------------13-----|
|----3333----7*------10---------------------------10------------15---------|
|-1------2--9--9h12----------------------------------12p9/12h16------------|
|---4-----3/---------------------------------------------------------------|
pm  .      .

|-12h16h20t22p20p16p12-----------------------------8h14p12p8-------------|
|----------------------14------------------------9-----------11-------12-|
|-------------------------13------------------10----------------10/11----|
|----------------------------15------------10----------------------------|
|-------------------------------14p12\8h11-------------------------------|
|------------------------------------------------------------------------|

|-10h14p10-------------------------------18p15-------------------------------|
|----------12---------------------------------17---------------15p12---------|
|-------------11---------------------333--------18p15\12------------13-------|
|----------------12----------------3*-------------------14------------15p12\-|
|-------------------14p10--000-1/33-----------------------15p12--------------|
|--------------------------000-1/33------------------------------------------|
pm                         ... . ..

|--------|
|--------|
|--------|
|9-------|
|-10-----|
|---12p9-|
Tap to rate this tab
 
# A B C D E F G H I J K L M N O P Q R S T U V W X Y Z