Song name
# A B C D E F G H I J K L M N O P Q R S T U V W X Y Z

Misc Unsigned Bands - Y Luv - The Push tab

This my second tab off of "Y LUV's" EP's.
THE PUSH.


(INTRO/VERSES: PALM MUTED)
"Always lost, never find me..."
e|----------------------------------------|
B|----------------------------------------|
G|----------------------------------------|
D|----------------------------------------|
A|---------------------5-5-5-5------------|
E|--7-7-7-7---5--5--5----------3--3--3----|

(CHORUS)
"You've got the look..."
e|-------------------------------------------|
B|-------------------------------------------|
G|-------------------------------------------|
D|------------------------7-7-7-7------------|
A|--9-9-9-9---7--7--7-----5-5-5-5---5--5--5--|
E|--7-7-7-7---5--5--5---------------3--3--3--|

(BRIDGE)
"I am too old to do this..."
e|------------------------------------------|
B|------------------------------------------|
G|------------------------------------------|
D|--77777777--------------------------------|
A|--55555555-9999999-1010101010101010-------|
E|-----------7777777--8-8-8-8-8-8-8-8-------|

"Where is my timing..."
e|-----------------|
B|-----------------|
G|-----------------|
D|-----------------|
A|--7------5-------|
E|--5------3-------|
Tap to rate this tab
 
# A B C D E F G H I J K L M N O P Q R S T U V W X Y Z