Song name
# A B C D E F G H I J K L M N O P Q R S T U V W X Y Z

Misc Unsigned Bands - J Netts - Uncomparable tab

Help us improve GuitareTab! Take a short survey!
Standard Tuning


Intro/Chorus;

---------------2-----2-----2--------------------2-----2-----2-----------------|
---------3---3---3-----3-----3-----------2---2----2-----2-----2---------------|
---2---2---2-------2-----2-----0---0---0---0--------0-----0-----0---------0---|
-0---0--------------------------------------------------------------0---0---0-|
---------------------------------3---3----------------------------------------|
------------------------------------------------------------------3---3-------|


-----------------------------------2-----3-----2-------------------2-----2-----|
---2-----2-----2-------------3---3---3-----3-----3-----------3---3---3-----3---|
-0---0-----0-----0-----2---2---2-------2-----2-----2---2---2---2-------2-----2-|
-------0-----0-----0-0---0---------------------------0---0---------------------|
-------------------------------------------------------------------------------|
-------------------------------------------------------------------------------|

-2--------------------2-----2-----2-----------------------------------------|
---3-----------2---2----2-----2-----2-----------------2-----2-----2---------|
-----0---0---0---0--------0-----0-----0---------0---0---0-----0-----0-------|
------------------------------------------0---0---0-------0-----0-----0-----|
-------3---3----------------------------------------------------------------|
----------------------------------------3---3-------------------------------|


---------------2-----3-----2-----0-----2-----3-----2-----0---------|
---------3---3---3-----3-----3-----3-----3-----3-----3-----3-------|
---2---2---2-------2-----2-----2-----2-----2-----2-----2-----2-----|
-0---0-------------------------------------------------------------|
-------------------------------------------------------------------|
-------------------------------------------------------------------|


Verse 1;
 D    C5   G
-2----3----3-------------------|
-3----3----3-------------------|
-2----0----0-------------------|
-0----2----0-------------------|
------3----2-------------------|
-----------3-------------------|


D                              C5
 Nightly skies, the stars, the moonlight and the morning sunrise
G                      D
 Don't compare to your eyes
D                                  C5
 Its like a dream to be around you, for once i sing of paradise
G                          D
 Cause I'm looking in your eyes
D                                         C5
 Shining brighter than the brightest star, Uncomparable you are
G                D
 Uncomparable by far
D                                  C5
 Its like a dream to be around you, for once i sing of paradise
G                          D
 Cause I'm looking in your eyes


Play Chorus:


Solo;

----------14---12--10--10-10--10-10--10-10--7--7--10--12---10-14-12---------|
-10--10-------------------------------------------------------------10-10---|
----------------------------------------------------------------------------|
----------------------------------------------------------------------------|
----------------------------------------------------------------------------|
----------------------------------------------------------------------------|

----14---12--10--10-10--10-10--10-10--7--7--10--12--14--12-----------14--17-|
-10---------------------------------------------------------10-10-10--------|
----------------------------------------------------------------------------|
----------------------------------------------------------------------------|
----------------------------------------------------------------------------|
----------------------------------------------------------------------------|


-10--10-10--10-10--10-10--7--7--10--12---10-14-12-----------14---12--10--10-|
---------------------------------------------------10-10-10-----------------|
----------------------------------------------------------------------------|
----------------------------------------------------------------------------|
----------------------------------------------------------------------------|
----------------------------------------------------------------------------|


-10--10-10--10-10--7--7--5--10-|
-------------------------------|
-------------------------------|
-------------------------------|
-------------------------------|
-------------------------------|

End with chorus:
Related for J Netts - Uncomparable tab