Song name
# A B C D E F G H I J K L M N O P Q R S T U V W X Y Z

Misc Unsigned Bands - Why - Kids Of The Futre tab

This is one of my bands songs.   :)

e|----------------|----------------|----------------|----------------|
B|--1------1------|--1------1------|--1------1------|--1------1------|
G|-----2-----2----|-----2-----2----|-----0-----0----|-----0-----0----|
D|----------------|----------------|----------------|----------------|
A|----------------|----------------|----------------|----------------|
E|----------------|----------------|----------------|----------------|




e|----------------|----------------|----------------|----------------|
B|--1------1------|--1------1------|--3------3------|--3------3------|
G|----------------|----------------|----------------|----------------|
D|-----3-----3----|-----3-----3----|-----5-----5----|-----5-----5---7|
A|----------------|----------------|----------------|----------------|
E|----------------|----------------|----------------|----------------|


Tap to rate this tab
# A B C D E F G H I J K L M N O P Q R S T U V W X Y Z