Song name
# A B C D E F G H I J K L M N O P Q R S T U V W X Y Z

Misc Unsigned Bands - Along The Horizon - Away tab

Help us improve GuitareTab! Take a short survey!
Hey, please if you like this and want more email me at sebrko@hotmail.com, i need
a producer to see this!!!!!


~~~~~~~= vibrato
*******= pick slide

E|------------------------------|
B|------------------------------|
G|-------7----------------------|
D|-00-78------------------------| X2
A|----------8-8787--------------|
E|-----------------8-8888-8888--|

E|------------------------------------------|
B|------------------------------------------|
G|-------7----------------------------------|
D|-00-78------------------------------------|
A|----------8-8787--------------------------|
E|-----------------8-8888-8888--7-7777-7777-|


E|----------------------------------|
B|----------------------------------|
G|----------------------------------|
D|-9-9999---7-7777------------------| X2
A|-7-7777---5-5555-7-7777---9-9999--|
E|-----------------5-5555---7-7777--|


E|---------------------------|
B|---------------------------|
G|--------------------7-7777-|
D|-9-9999---7-7777----5-5555-|
A|-7-7777---5-5555-----------|
E|---------------------------|


E|-----------------------------------------------|
B|-----------------------------------------------|
G|--99999999---12-12-12-12-12-12-12-12--77777777-|  X2
D|--77777777---10-10-10-10-10-10-10-10--55555555-|
A|-----------------------------------------------|
E|-----------------------------------------------|


E|----------------------------------------------------------------------|
B|------------------------8~~~~~~~~-------------------------8~~~~~~~~~--|
G|----9-7-------------9-7----------------9-7------------9-7-------------|
D|--7-----8~~~~~~~--7------------------7-----8~~~~~~--7-----------------|
A|----------------------------------------------------------------------|
E|----------------------------------------------------------------------|

E|----------------------------------------------------------------------|
B|----------------------------------------------------------------------|
G|----------------------------------------------------------------------|
D|----------------------------------------------------------------------|
A|**********************************************************************
E|**********************************************************************

E|------------------------------------------------|
B|------------------------------------------------|
G|------------------------------------------------|    X2
D|---9-9-9-9-9-9-9---7-7-7-7---5-5-5-5---7-7-7-7--|
A|--7-7-7-7-7-7-7---5-5-5-5---3-3-3-3---5-5-5-5---|
E|------------------------------------------------|

E|-----------------------------------------|
B|-----------------------------------------|
G|-----------------------------------------|
D|-99999999--77777777--55555555--77777777--|  X2
A|-77777777--55555555--33333333--55555555--|
E|-----------------------------------------|

E|--------------------|
B|--------------------|
G|--------------7777--|
D|--9999--7777--5555--|
A|--7777--5555--------|
E|--------------------|

E|---------------------------------------------|
B|---------------------------------------------|
G|--999999--12-12-12-12-12-12--999999--777777--|
D|--777777--10-10-10-10-10-10--777777--555555--| X2
A|---------------------------------------------|
E|---------------------------------------------|

E|----------------------------------------------------------------------|
B|------------------------8~~~~~~~~-------------------------8~~~~~~~~~--|
G|----9-7-------------9-7----------------9-7------------9-7-------------|
D|--7-----8~~~~~~~--7------------------7-----8~~~~~~--7-----------------|
A|----------------------------------------------------------------------|
E|----------------------------------------------------------------------|

E|----------------------------------------------------------------------|
B|----------------------------------------------------------------------|
G|----------------------------------------------------------------------|
D|----------------------------------------------------------------------|
A|**********************************************************************
E|**********************************************************************

E|------------------------------------------------|
B|------------------------------------------------|
G|------------------------------------------------|    X2
D|---9-9-9-9-9-9-9---7-7-7-7---5-5-5-5---7-7-7-7--|
A|--7-7-7-7-7-7-7---5-5-5-5---3-3-3-3---5-5-5-5---|
E|------------------------------------------------|

E|-------------------------------------------|
B|-------------------------------------------|
G|-------------------------------------------|   Let Ring
D|-99999999--77777777--55555555--77777777--9-|
A|-77777777--55555555--33333333--55555555--7-|
E|-------------------------------------------|

HOPE YOU ENJOY!!!!!!!
Related for Along The Horizon - Away tab