Guitaretab - guitar tabs
Song name
# A B C D E F G H I J K L M N O P Q R S T U V W X Y Z

Misc Unsigned Bands - Elephant - Stiff As A Board tab

-------------------------------------------------------------------------------
			     Stiff As A Board - Elephant
-------------------------------------------------------------------------------
Tabbed by: Dannyboy9494

Tuning: Standard With A Capo On 4 ( So 0 = 4 )
[ Tab from: http://www.guitaretab.com/m/misc-unsigned-bands/190608.html ]
e|----8----------7-----------10----------8---7-----------------5----------------|
B|-------5----------5------------5---8-----------8---5-----------5--------------|
G|----------5----------5--------------------------------5----------5------------|
D|---------------------------------------------------------5--------------------|
A|----0----------0-----------0----------------------(0)-------------------------|
E|------------------------------------------------------------------------------|

e|---------------------------------------------------------------------------|
B|---6---------5-------------------------------------------------------------|
G|------5----------5---------------------------------------------------------|
D|---------5-----------5-----------------------------------------------------|
A|---------------------------------------------------------------------------|
E|---------------------------------------------------------------------------|

Repeat Throughout Whole Song.

| /  slide up
| \  slide down
| h  hammer-on
| p  pull-off
| ~  vibrato
| +  harmonic
|(0) ghost note

===============================================================================
Related for Elephant - Stiff As A Board tab
Advertisement will be closed in 10 seconds