Song name
# A B C D E F G H I J K L M N O P Q R S T U V W X Y Z

Misc Unsigned Bands - Collin Barclay - Sailboat Shorts tab

               /*---------------------------------|
               | Sailboat Shorts - Collin Barclay |
               |---------------------------------*/


//Capo on 2nd Fret.
//Chords and tabs relative to the capo.


/*-------------|
|---INTRO!-----|
|--------------|

    C                       E                       Am
E|--------------------------------------------------------------------------------------------------|
B|--------1--1--------1--1--------0--0--------0--0--------1--1--------1--1--------1--1--------1--1--|
G|-----0--0--------0--0--------1--1--------1--1--------2--2--------2--2--------2--2--------2--2-----|
D|--------2-----------2-----------2-----------2-----------2-----------2-----------2-----------2-----|
A|--3-----------3-----------2-----------2-----------0-----------0-----------0-----------0-----------|
E|--------------------------------------------------------------------------------------------------|

    C                       E                       Am
E|--------------------------------------------------------------------------------------------------|
B|--------1--1--------1--1--------0--0--------0--0--------1--1--------1--1--------1--1--------1--1--|
G|-----0--0--------0--0--------1--1--------1--1--------2--2--------2--2--------2--2--------2--2-----|
D|--------2-----------2-----------2-----------2-----------2-----------2-----------2-----------2-----|
A|--3-----------3-----------2-----------2-----------0-----------0-----------0-----------0-----------|
E|--------------------------------------------------------------------------------------------------|

    C                       E                       Am
E|--------------------------------------------------------------------------------------------------|
B|--------1--1--------1--1--------0--0--------0--0--------1--1--------1--1--------1--1--------1--1--|
G|-----0--0--------0--0--------1--1--------1--1--------2--2--------2--2--------2--2--------2--2-----|
D|--------2-----------2-----------2-----------2-----------2-----------2-----------2-----------2-----|
A|--3-----------3-----------2-----------2-----------0-----------0-----------------------------------|
E|--------------------------------------------------------------------------0-----------0-----------|

    F                       G                       C
E|--------------------------------------------------------------------------------------------------|
B|--------1--1--------1--1--------3--3--------3--3--------1--1--------1--1--------1--1--------1--1--|
G|-----2--2--------2--2--------4--4--------4--4--------0--0--------0--0--------0--0--------0--0-----|
D|--------3-----------3-----------5-----------5-----------2-----------2-----------2-----------2-----|
A|--------------------------------------------------3-----------3-----------3-----------3-----------|
E|--1-----------1-----------3-----------3-----------------------------------------------------------|

/*-------------|
|---VERSE!-----|
|--------------|

    C                       Am                      Em
E|--------------------------------------------------------------------------------------------------|
B|--------1--1--------1--1--------1--1--------1--1--------0--0--------0--0--------0--0--------0--0--|
G|-----0--0--------0--0--------2--2--------2--2--------0--0--------0--0--------0--0--------0--0-----|
D|--2-----2-----------2-----------2-----2-----2-----------2-----------2-----------2-----------2-----|
A|--------------3-----------0-----------------------2-----------2-----------2-----------2-----------|
E|--------------------------------------------------------------------------------------------------|

    C                       Am                      Em                      G
E|--------------------------------------------------------------------------------------------------|
B|--------1--1--------1--1--------1--1--------1--1--------0--0--------0--0--------3--3--------3--3--|
G|-----0--0--------0--0--------2--2--------2--2--------0--0--------0--0--------4--4--------4--4-----|
D|--2-----2-----------2-----------2-----2-----2-----------2-----------2-----------5-----------5-----|
A|--------------3-----------0-----------------------2-----------2-----------5-----------------------|
E|--------------------------------------------------------------------------------------3-----------|

    C                       Am                      Em
E|--------------------------------------------------------------------------------------------------|
B|--------1--1--------1--1--------1--1--------1--1--------0--0--------0--0--------0--0--------0--0--|
G|-----0--0--------0--0--------2--2--------2--2--------0--0--------0--0--------0--0--------0--0-----|
D|--2-----2-----------2-----------2-----2-----2-----------2-----------2-----------2-----------2-----|
A|--------------3-----------0-----------------------2-----------2-----------2-----------2-----------|
E|--------------------------------------------------------------------------------------------------|

    C                       Am                      Em                      G
E|--------------------------------------------------------------------------------------------------|
B|--------1--1--------1--1--------1--1--------1--1--------0--0--------0--0--------3--3--------3--3--|
G|-----0--0--------0--0--------2--2--------2--2--------0--0--------0--0--------4--4--------4--4-----|
D|--2-----2-----------2-----------2-----2-----2-----------2-----------2-----------5-----5-----5-----|
A|--------------3-----------0-----------------------2-----------2-----------5-----------------------|
E|--------------------------------------------------------------------------------------------------|

/*-------------|
|---CHORUS-----|
|--------------|

    F                       C                       E                       Am
E|--------------------------------------------------------------------------------------------------|
B|--------1--1--------1--1--------1--1--------1--1--------0--0--------0--0--------1--1--------1--1--|
G|-----2--2--------2--2--------0--0--------0--0--------1--1--------1--1--------2--2--------2--2-----|
D|--------3-----------3-----------2-----------2-----------2-----------2-----------2-----------2-----|
A|--------------------------3-----------3-----------2-----------2-----------0-----------------------|
E|--1-----------1-----------------------------------------------------------------------0-----------|

    F                       C                       Em
E|--------------------------------------------------------------------------------------------------|
B|--------1--1--------1--1--------1--1--------1--1--------0--0--------0--0--------0--0--------0--0--|
G|-----2--2--------2--2--------0--0--------0--0--------0--0--------0--0--------0--0--------0--0-----|
D|--------3-----------3-----------2-----------2-----------2-----------2-----------2-----------2-----|
A|--------------------------3-----------3-----------2-----------2-----------2-----------2-----------|
E|--1-----------1-----------------------------------------------------------------------------------|

    F                       C                       E                       Am
E|--------------------------------------------------------------------------------------------------|
B|--------1--1--------1--1--------1--1--------1--1--------0--0--------0--0--------1--1--------1--1--|
G|-----2--2--------2--2--------0--0--------0--0--------1--1--------1--1--------2--2--------0--0-----|
D|--------3-----------3-----------2-----------2-----------2-----------2-----------2-----------2-----|
A|--------------------------3-----------3-----------2-----------2-----------0-----------------------|
E|--1-----------1-----------------------------------------------------------------------3-----------|

    F                       G                       C
E|--------------------------------------------------------------------------------------------------|
B|--------1--1--------1--1-----3--3--3-----3--3--3-----1--1--1-----1--1--1-----1--1--1-----1--1--1--|
G|-----2--2--------2--2-----------4-----------4-----------0-----------0-----------0-----------0-----|
D|--------3-----------3-----------5-----------5-----------2-----------2-----------2-----2-----2-----|
A|--------------------------------------5-----------3-----------3-----------3-----------------------|
E|--1-----------1-----------3-----------------------------------------------------------------------|
Tap to rate this tab
# A B C D E F G H I J K L M N O P Q R S T U V W X Y Z