Song name
# A B C D E F G H I J K L M N O P Q R S T U V W X Y Z

Misc Unsigned Bands - J Netts - Speed tab

Help us improve GuitareTab! Take a short survey!
h = hammer on
p = pull off

note: despite all of the hammer-on and pull-offs this song is quite simple
      and the faster it is played the better it will sound.


-2h3p2-2h3p2-2h3p2-2h3p2h5p2h3p2-2h3p2-2h3p2-2h3-7--5-3-2h3p2-2h3p2-2h3p2-|
--------------------------------------------------------------------------|
--------------------------------------------------------------------------|
--------------------------------------------------------------------------|
--------------------------------------------------------------------------|
--------------------------------------------------------------------------|


-2h3p2h5p2h3p2-7--5-3h5p3h5--3-2-2h3p2-2h3p2-2h3p2-2h3p2h5p2h3p2-2h3p2-|
-----------------------------------------------------------------------|
-----------------------------------------------------------------------|
-----------------------------------------------------------------------|
-----------------------------------------------------------------------|
-----------------------------------------------------------------------|


-2h3p2-2h3-7--5-3-2h3p2-2h3p2-2h3p2-2h3p2h5p2h3p2-7--5-3h5p3-8--7-5-8-7-5-|
--------------------------------------------------------------------------|
--------------------------------------------------------------------------|
--------------------------------------------------------------------------|
--------------------------------------------------------------------------|
--------------------------------------------------------------------------|


-8-7-5-8-7-10-8-7-10-8-7-10-8-8-7-5-8-7-5-8-7-7-5-3-7-5-3-5-7-8-7-5-8-7-5-|
--------------------------------------------------------------------------|
--------------------------------------------------------------------------|
--------------------------------------------------------------------------|
--------------------------------------------------------------------------|
--------------------------------------------------------------------------|


-8-7-10-8-7-10-8-7-10-8-12-10-8-10-8-7-8-7-5-7-5-3-5-3-2--0-|
-------------------------------------------------------4--2-|
-------------------------------------------------------4--2-|
-------------------------------------------------------2--0-|
-------------------------------------------------------2--0-|
-------------------------------------------------------2--0-|
Related for J Netts - Speed tab