Song name
# A B C D E F G H I J K L M N O P Q R S T U V W X Y Z

Misc Unsigned Bands - J Netts - Cause Youre Mine tab

Intro:

----------------------------------------------------------------------------|
-------1--------------0-------------2---------------0--------------1--------|
----2-----2--------0-----0-------2-----2---------0-----0--------2-----2-----|
----------------------------------------------------------------------------|
-3-----------3--2-----------2--0-----------0--2-----------2--3-----------3--|
----------------------------------------------------------------------------|


-----------------------------------------------|
-------0--------------2------------------------|
----0-----0--------2-----2------------0--------|
-----------------------------------0-----0-----|
-2-----------2--0-----------0------------------|
--------------------------------3--------------|


Verse:

----------------------------------------------------------------------------|
-------1--------1--------------0--------0-----------------------------------|
----2--------2--------------0--------0-----------------2--------2-----------|
----------------------0-----------------------------2--------2--------2-----|
-3--------3--------3-----2--------2--------2--3--0--------0--------0--------|
----------------------------------------------------------------------------|


----------------------------------------------------------------------------|
-------0--------0--------------1--------1--------------0--------0-----------|
----0--------0--------------2--------2--------------0--------0--------------|
----------------------------------------------0-----------------------------|
-2--------2--------0--2--3--------3--------3-----2--------2--------2--3-----|
----------------------------------------------------------------------------|

------------------------------------|
------------------------------------|
-------2--------2--------------0----|
----2--------2--------2-----0-----0-| x2
-0--------0--------0----------------|
-------------------------3----------|


Repeat the intro to end the song
Tap to rate this tab
 
# A B C D E F G H I J K L M N O P Q R S T U V W X Y Z