Song name
# A B C D E F G H I J K L M N O P Q R S T U V W X Y Z

Misc Unsigned Bands - Oh Antarctica - Genesis An Atonement tab

Band: Oh, Antarctica
Song: Genesis: an Atonement
Album: We Aren't The Costumes We Wear EP

Tabbed by: Zach Hyte
Email: geekboy_1003@msn.com

Drop C Tuning

Key
(h) Hammer Ons
(p) Pull Offs
(x) Mutes
(.) Palm Mutes
(~) Hold Note

Intro (0:06)

D:---------------------------------------------|
A:---------------------------------------------|
F:---------------------------------------------| (x2)
C:-0~~~~~3~~~~~8~~~~~5~~~~10-------------------|
G:-0~~~~~3~~~~~8~~~~~5~~~~10-------------------|
C:-0~~~~~3~~~~~8~~~~~5~~~~10-------------------|
(on the second measure strum 5 and 10)

Verse 1 (0:27)

D:--------------------------------------------------------|
A:--------------------------------------------------------|
F:--------------------------------------------10----------|
C:-----------7------------10-------------7-7h8--8-7h8p7---| (x4)
G:-----8-10---------8-10-----------8-10----------------8--|
C:-000--0---0---000--0---0-----000--0---0-----------------|
/:-...--.---.---...--.---.-----...--.---.-----------------|

Chorus 1 (0:49)

D:--------------------------------------------------|
A:--------------------------------------------------|
F:--7777-710101010--1099----------------------------| (x4)
C:--xxxx-x-x-x-x-x--x-xx--8888-83333-33333----------|
G:--5555-58-8-8-8---8-77--8888-83333-33333----------|
C:------------------------8888-83333-33333----------|

Bridge/Breakdown (1:10)

D:-------6---6----------6--------------------|
A:-------9---9----------9---7h10-10\---------|
F:-------------------------------------------|
C:-0~-00--00--0---0~-00--00------------------| (x4)
G:-0~-00--00--0---0~-00--00------------------|
C:-0~-00--00--0---0~-00--00------------------|
/:----..--..--.------..--..------------------|

Chorus 2(1:31)

D:-------------------------------------------|
A:-------------------------------------------|
F:-10----12----9-----5-----------------------| (x4)
C:-8-----10----7-----3-----------------------|
G:-8-----10----7-----3-----------------------|
C:-8-----10----7-----3-----------------------|
(find out the strumming yourself)

Verse 2 (2:02)

D:---------------------------------------------------------|
A:---------------------------------------------------------|
F:---------------------------------------------------------|
C:------------------------7--------------------------------| (x4)
G:-----8-10--7------8-10-----------8-10--7-7h8p7--7h8p7----|
C:-000--0---0---000--0---0-----000--0---0-------10-----8---|
/:-...--.---.---...--.---.-----...--.---.------------------|

Breakdown 1 (2:30)

D:-------------------------------------------------------|
A:-------------------------------------------------------|
F:-------------------------------------------------------|
C:-0000-0-00~~7h8p7--0000-0-00~~-------------(111-333)---| (x2)
G:-0000-0-00~~-----8-0000-0-00~~7h8p7--------(111-333)---|
C:-0000-0-00~~-------0000-0-00~~-----10------(111-333)---|
(figure out timing yourself, on the second measure do the stuff in parenthesis)

Guitar Solo Thing(3:21)

D:-------------------------------------------|
A:-------------------------------------------|
F:-------------------------------------------|
C:-15p0-15p0-15p0-15p0-15p0-15p0-15p0-15p0---|
G:-------------------------------------------|
C:-------------------------------------------|

D:-------------------------------------------|
A:-------------------------------------------|
F:-------------------------------------------|
C:-17p0-17p0-17p0-17p0-17p0-17p0-17p0-17p0---|
G:-------------------------------------------|
C:-------------------------------------------|

D:-------------------------------------------|
A:-------------------------------------------|
F:-------------------------------------------|
C:--19p0-19p0h20--19p0-19p0h20--19p0h20------|
G:-------------------------------------------|
C:-------------------------------------------|

D:-------------------------------------------|
A:-------------------------------------------|
F:-------------------------------------------| (x2)
C:--19p0-19p0h20--19p0-19p0h20--19p0h20------|
G:-------------------------------------------|
C:-------------------------------------------|

Pre-Breakdown (3:38)

D:---------------------------------------------------------|
A:---------------------------------------------------------|
F:---------------------------------------------------------|
C:-000--15p0-15p0-15p0-15p0-000--17p0-17p0-17p0-17p0-------|
G:-000----------------------000----------------------------|
C:-000----------------------000----------------------------|
/:-...----------------------...----------------------------|

D:---------------------------------------------------------|
A:---------------------------------------------------------|
F:---------------------------------------------------------|
C:-000--19p0-19p0h20p19p0---000--19p0-19p0h20p19p0---------| (x2)
G:-000----------------------000----------------------------|
C:-000----------------------000----------------------------|
/:-...----------------------...----------------------------|

Breakdown/Outro (3:53)

D:--------------------------------------------|
A:--------------------------------------------|
F:--------------------------------------------|
C:-0000~~0000~~3333~~55555565--(0)------------| (x2)
G:-0000~~0000~~3333~~55555565--(0)------------|
C:-0000~~0000~~3333~~55555565--(0)------------|
(and end in parenthesis)

This is my very first tab of a full song so let me know how it went!
P.S. If you dont know this band, it's actually my own band, so check us out at 
www.myspace.com/ohanty
:)
Tap to rate this tab
# A B C D E F G H I J K L M N O P Q R S T U V W X Y Z