Song name
# A B C D E F G H I J K L M N O P Q R S T U V W X Y Z

Misc Unsigned Bands - Ramzes And The Hooligans - Wielkanoc tab

Intro i przejście/Intro and Bridge

E|------------------|
B|------------------|
G|-9-9-9-9-9--12----|
D|-9-9-9-9-9--12----|
A|-7-7-7-7-7--10----|
E|------------------|

Zwrotka/Verse

E|---------------|---------------|---------------|-------------|
B|---------------|---------------|---------------|-------------|
G|---------------|-9--9-9-12--9--|---------------|-9-9-9-7-9---|
D|-7--7-7-9--9-9-|-9--9-9-12--9--|-7--7-7-9--9-9-|-9-9-9-7-9---|
A|-7--7-7-9--9-9-|-7--7-7-10--7--|-7--7-7-9--9-9-|-7-7-7-5-7---|
E|-5--5-5-7--7-7-|---------------|-5--5-5-7--7-7-|-------------|

Refren/Chorus


E|---------------|---------------|---------------|--------------|
B|---------------|---------------|---------------|--------------|
G|-9--9-9-7--7-9-|---9-9-9-------|-9--9-9-7--7-9-|-9-9-9-9--9---|
D|-9--9-9-7--7-9-|---9-9-9-7--7--|-9--9-9-7--7-9-|-9-9-9-9--9---|
A|-7--7-7-5--5-7-|---7-7-7-7--7--|-7--7-7-5--5-7-|-7-7-7-7--7---|
E|---------------|---------5--5--|---------------|--------------|
Tap to rate this tab
# A B C D E F G H I J K L M N O P Q R S T U V W X Y Z