Song name
# A B C D E F G H I J K L M N O P Q R S T U V W X Y Z

Misc Unsigned Bands - Sleepy Sleepers - Vaino tab

Artist: Sleepy Sleepers
Album: Kekkonen
Track: Väinö

Tab by: Fin-Guitarist95

INTRO

P.M.- - - - - - - - - - - - - - -           P.M.- -
                               3X
e-----------------|------------|-------------------|
B-----------------|-----------O|-------------------|
G-----------------|------------|-------------------|
D--7--7-----------|------------|-------------------|
A--5--5---7-7-7-9-|-----------O|--3---7---9--999---|
E---------5-5-5-7-|------------|--5---5---7--777---|

                (Hei, hei, hei!)   Aa-aa-aaa.....


VERSE

P.M.- - - - - - - - - - - - - - -
                           2X
e--------------------------|---|
B-------------------------O|---|
G--------------------------|---|
D--------------------------|---|
A--9--9--9--9--9--9--9--9-O|---|
E--7--7--7--7--7--7--7--7--|---|

 Väinö oli duunari raksalla
 Väinö oli ryypännyt rajusti


P.M.- - - - - - - - - - - - - - -
                           2X
e--------------------------|---|
B-------------------------O|---|
G--------------------------|---|
D--------------------------|---|
A--7--7--7--7--7--7--7--7-O|---|
E--5--5--5--5--5--5--5--5--|---|

Häntä oltu pilattu ei maksalla
Ja täten oli maksan käynyt haljusti


CHORUS

P.M.- - - - - - - - - - - - - - -                 P.M.- -
                                    3X
e---------------------|--------------|-------------------|
B---------------------|-------------O|-------------------|
G---------------------|--------------|-------------------|
D--7--7---------------|--------------|-------------------|
A--5--5---7-7-7-9-----|-------------O|--3---7---9--999---|
E---------5-5-5-7-----|--------------|--5---5---7--777---|

Väinö on maksaton mies (hei, hei, hei)  Aa-aa-aaa.....

VERSE

P.M.- - - - - - - - - - - - - - -
                           2X
e--------------------------|---|
B-------------------------O|---|
G--------------------------|---|
D--------------------------|---|
A--9--9--9--9--9--9--9--9-O|---|
E--7--7--7--7--7--7--7--7--|---|

Väinöllä rahat on lopussa aina
Silti Väinö vielä duunia painaa

P.M.- - - - - - - - - - - - - - -
                           2X
e--------------------------|---|
B-------------------------O|---|
G--------------------------|---|
D--------------------------|---|
A--7--7--7--7--7--7--7--7-O|---|
E--5--5--5--5--5--5--5--5--|---|

Ja päälle painaa vielä asuntolaina
Ja rahoilla lyhentää asuntolainaa


CHORUS

P.M.- - - - - - - - - - - - - - -                 P.M.- -
                                   3X
e---------------------|--------------|-------------------|
B---------------------|-------------O|-------------------|
G---------------------|--------------|-------------------|
D--7--7---------------|--------------|-------------------|
A--5--5---7-7-7-9-----|-------------O|--3---7---9--999---|
E---------5-5-5-7-----|--------------|--5---5---7--777---|

Väinö on varaton mies (hei, hei, hei)   Aa-aa-aaa.....


VERSE

P.M.- - - - - - - - - - - - - - -
                           2X
e--------------------------|---|
B-------------------------O|---|
G--------------------------|---|
D--------------------------|---|
A--9--9--9--9--9--9--9--9-O|---|
E--7--7--7--7--7--7--7--7--|---|

Vihdoin Väinölle tilipäivä koitti
Väinö osti pienet Fete Ascat

P.M.- - - - - - - - - - - - - - -
                           2X
e--------------------------|---|
B-------------------------O|---|
G--------------------------|---|
D--------------------------|---|
A--7--7--7--7--7--7--7--7-O|---|
E--5--5--5--5--5--5--5--5--|---|

Ja vielä hän tonnin lotossa voitti
Ja maksasta välitti hän hevon paskat


CHORUS

P.M.- - - - - - - - - - - - - - -                 P.M.- -
                                   3X
e---------------------|--------------|-------------------|
B---------------------|-------------O|-------------------|
G---------------------|--------------|-------------------|
D--7--7---------------|--------------|-------------------|
A--5--5---7-7-7-9-----|-------------O|--3---7---9--999---|
E---------5-5-5-7-----|--------------|--5---5---7--777---|

Väinö on varakas mies (hei, hei, hei)  Aa-aa-aaa.....

VERSE

P.M.- - - - - - - - - - - - - - -
                           2X
e--------------------------|---|
B-------------------------O|---|
G--------------------------|---|
D--------------------------|---|
A--9--9--9--9--9--9--9--9-O|---|
E--7--7--7--7--7--7--7--7--|---|

Väinö vaan raksalle trukkia ohjaa
Tämän jo huomasi duunariremmi

P.M.- - - - - - - - - - - - - - -
                           2X
e--------------------------|---|
B-------------------------O|---|
G--------------------------|---|
D--------------------------|---|
A--7--7--7--7--7--7--7--7-O|---|
E--5--5--5--5--5--5--5--5--|---|

Ja taivaalle kohottelee pullon pohjaa
Mutta Väinö tuumi, että enää en mä emmi

CHORUS

P.M.- - - - - - - - - - - - - - -                 P.M.- -
                                   3X
e---------------------|--------------|-------------------|
B---------------------|-------------O|-------------------|
G---------------------|--------------|-------------------|
D--7--7---------------|--------------|-------------------|
A--5--5---7-7-7-9-----|-------------O|--3---7---9--999---|
E---------5-5-5-7-----|--------------|--5---5---7--777---|

Väinö on tajuton mies (hei, hei, hei)  Aa-aa-aaa.....

VERSE

P.M.- - - - - - - - - - - - - - -
                           2X
e--------------------------|---|
B-------------------------O|---|
G--------------------------|---|
D--------------------------|---|
A--9--9--9--9--9--9--9--9-O|---|
E--7--7--7--7--7--7--7--7--|---|
Väinöllä maksa oli siis puhki
Mut' putki se näkryä kestänyt ei

P.M.- - - - - - - - - - - - - - -
                           2X
e--------------------------|---|
B-------------------------O|---|
G--------------------------|---|
D--------------------------|---|
A--7--7--7--7--7--7--7--7-O|---|
E--5--5--5--5--5--5--5--5--|---|

Ja maksan paikalla oli hopea putki
Ja tämä homma Väinöltä hengen vei

CHORUS

P.M.- - - - - - - - - - - - - - -                 P.M.- -
                                   3X
e---------------------|--------------|-------------------|
B---------------------|-------------O|-------------------|
G---------------------|--------------|-------------------|
D--7--7---------------|--------------|-------------------|
A--5--5---7-7-7-9-----|-------------O|--3---7---9--999---|
E---------5-5-5-7-----|--------------|--5---5---7--777---|

Väinö on hengetön mies (hei, hei, hei)  Aa-aa-aaa.....


OUTRO

         P.M.-
e---------------------|
B---------------------|
G-5--7--9-------------|
D-5--7--9-------------|
A-5--7--99999999------|
E-3--5--77777777------|
Tap to rate this tab
# A B C D E F G H I J K L M N O P Q R S T U V W X Y Z