Song name
# A B C D E F G H I J K L M N O P Q R S T U V W X Y Z

Misc Unsigned Bands - Incura - Over Until Its Over tab

Incura - Over Until It's Over
intro

this is for the people who don't use Guitar pro
(namely gatlin, to look at not to learn from obviously, lol)



      Q    Q     E  E  E  E     Q    Q    Q    Q        Q    Q     E  E  E  E   
D#||-------------------------|-----------------------|-------------------------|
A#||-------------------------|-----------------------|-------------------------|
F#||-------------------------|-----------------------|-------------------------|
C#||-------------------------|-----------------------|-------------------------|
G#||-------8----10--8--7-----|--8----5----7----4~----|-------8----10--8--7-----|
C#||--0----------------------|-----------------------|--0----------------------|


  Q    Q    Q    Q        Q    Q     E  E  E  E     Q    Q    Q    Q      
-----------------------|-------------------------|-----------------------|
-----------------------|-------------------------|-----------------------|
-----------------------|-------------------------|-----------------------|
------------8----7~----|-------------------------|-----------------------|
--8----5---------------|-------8----10--8--7-----|--8----5----7----4~----|
-----------------------|--0----------------------|-----------------------|


  Q    Q     E  E  E  E     Q    Q    Q    Q        Q    Q     E  E  E  E   
-------------------------|-----------------------|-------------------------|
-------------------------|-----------------------|-------------------------|
-------------------------|-----------------------|-------------------------|
-------------------------|------------8----7~----|-------------------------|
-------8----10--8--7-----|--8----5---------------|-------8----10--8--7-----|
--0----------------------|-----------------------|--0----------------------|


  Q    Q    Q    Q        Q    Q     E  E  E  E   
-----------------------|-------------------------|
-----------------------|-------------------------|
-----------------------|-------------------------|
-----------------------|-------------------------|
--8----5----7----4~----|-------8----10--8--7-----|
-----------------------|--0----------------------|


   S  S  S S S  S S S H           E  E  E  E  E  E  E  E   
-------------------------------|--------------------------|
-------------------------------|--------------------------|
-------------------------------|--------------------------|
--10-12-10---8-10-8---7--------|--------------------------|
-------------------------------|--------------------------|
-------------------------------|--8-----------------------|


  E  E  E  E  E  E  E  E     E  E  E  E  E  E  E  E   
--------------------------|--------------------------|
--------------------------|--------------------------|
--------------------------|--------------------------|
--------------------------|--------------------------|
--------------------------|--------------------------|
--7-----------------------|--2--2--------3--3--------|


  E  E  E  E  E  E  E  E     E  E  E  E  E  E  E  E   
--------------------------|--------------------------|
--------------------------|--------------------------|
--------------------------|--------------------------|
--------------------------|--------------------------|
--------------------------|--------------------------|
--0-----------------------|--8-----------------------|


  E  E  E  E  E  E  E  E     E  E  E  E  E  E  E  E     W                 
--------------------------|--------------------------|-------------------|
--------------------------|--------------------------|-------------------|
--------------------------|--------------------------|-------------------|
--------------------------|--------------------------|-------------------|
--------------------------|--------------------------|-------------------|
--7-----------------------|--2--2--------3--3--------|--0----------------|


  W                   W                   H        H         
-------------------|-------------------|--------------------|
-------------------|-------------------|--------------------|
-------------------|-------------------|--------------------|
--8----------------|--7----------------|--2--------3--------|
--8----------------|--7----------------|--2--------3--------|
--8----------------|--7----------------|--2--------3--------|


  W                   W                   W                 
-------------------|-------------------|-------------------|
-------------------|-------------------|-------------------|
-------------------|-------------------|-------------------|
--0----------------|--5----------------|--3----------------|
--0----------------|--5----------------|--3----------------|
--0----------------|--5----------------|--3----------------|


  H        H           W                  
--------------------|-------------------||
--------------------|-------------------||
--------------------|-------------------||
--2--------3--------|--0----------------||
--2--------3--------|--0----------------||
--2--------3--------|--0----------------||

any help on transcribing the rest would be appreciated

Duration Legend
---------------
W - whole
H - half
Q - quarter
E - 8th
S - 16th
T - 32nd
X - 64th
. - note dotted
|-n-|  - n-tuplets


Tablature Legend
----------------
L - tied note
x - dead note
g - grace note
(n) - ghost note
> - accentuded note
NH - natural harmonic
AH - artificial harmonic
TH - tapped harmonic
SH - semi harmonic
PH - pitch harmonic
h - hammer on
p - pull off
b - bend
br - bendRelease
pb - preBend
pbr - preBendRelease
brb - bendReleaseBend
\n/ - tremolo bar dip
\n - tremolo bar dive
-/n - tremolo bar Release up
/n\ - tremolo bar inverted dip
/n - tremolo bar return
-\n - tremolo bar Release down
S - shift slide
s - legato slide
/ -  slide into from below or out of upwards
\ -  slide into from above or out of downwards
~ - vibrato
W - wide vibrato
tr - trill
TP - tremolo picking
T - tapping
S - slap
P - pop
< - fade in
^ - brush up
v - brush down
Tap to rate this tab
# A B C D E F G H I J K L M N O P Q R S T U V W X Y Z