Song name
# A B C D E F G H I J K L M N O P Q R S T U V W X Y Z

Misc Unsigned Bands - Lovage - Lifeboat tab

Title: Lifeboat 
Artist: Lovage

Album: Music To Make Love To Your Old Lady By
Author: TaintSauce

Great tune, and relatively simple.
Listen to the song for rhythm.

Piano Intro:

E|-19----17---22---|-----------------|
B|-----------------|-20----19---17---|
G|-----------------|-----------------|
D|-----------------|-----------------|
A|-----------------|-----------------|
E|-----------------|-----------------| There's some chord action happening here, 
but I haven't figured the rest out yet.

Bass:
E|-----------------------------------|
B|-----------------------------------|
G|-----------------------------------|
D|--5---0-3-3--x---------------------|
A|---------------6---3-5--5-----3----|
E|-----------------------------------| repeat pretty much the whole song

Guitar Chorus (fuzz/overdrive works well here):
E|-----------------------------------||
B|----------------------------------0||
G|-----------------------------------||
D|0/5----8----10---12--12-10---8-----||
A|----------------------------------0||
E|-----------------------------------|| leave off the opening D for repeats.


Guitar fill:
E|-----------------|
B|-----------------|
G|7-/-12-(hold)----|
D|-----------------|
A|-----------------|
E|-----------------|


Pretty much it. These riffs repeat with a little variation for the entire song.
Tap to rate this tab
# A B C D E F G H I J K L M N O P Q R S T U V W X Y Z