Guitaretab - guitar tabs
Song name
# A B C D E F G H I J K L M N O P Q R S T U V W X Y Z

Misc Unsigned Bands - K-on - Dont Say Lazy tab

                                                            
x = Mute String and Plauck!

E||-------------------|-------------------|-------------------|
B||-------------------|-------------------|-------------------|
G||-------------------|-------------------|-------------------|
D||-5~----------------|-7~----------------|-4~----------------|
A||-3~----------------|-5~----------------|-2~----------------|
E||-------------------|-------------------|-------------------|


                                                                            
-------------------|-------------------|-------------------|-------------------|
-------------------|-------------------|-------------------|-------------------|
-------------------|-------------------|-------------------|-------------------|
-9-----------------|-7~----------------|-5~----------------|-7~----------------|
-7-----------------|-5~----------------|-3~----------------|-5~----------------|
-------------------|-------------------|-------------------|-------------------|


-------------------|-------------------|-------------------|-------------------|
-------------------|-------------------|-------------------|-------------------|
-------------------|-------------------|-------------------|-------------------|
-9-x-x-x-9-9-------|-x-x-x-9-9-----9---|-5~----------------|-7~----------------|
-7-x-x-x-7-7-------|-x-x-x-7-7-----7---|-3~----------------|-5~----------------|
-------------------|-------------------|-------------------|-------------------|


-------------------|-------------------|-------------------|-------------------|
-------------------|-------------------|-------------------|-------------------|
-------------------|-------------------|-------------------|-------------------|
-4~----------------|-9-----------------|-7~----------------|-2~----------------|
-2~----------------|-7-----------------|-5~----------------|-0~----------------|
-------------------|-------------------|-------------------|-------------------|

                                                   
-------------------|-------------------|-------------------|-------------------|
-------------------|-------------------|-------------------|-------------------|
-------------------|-------------------|-------------------|-------------------|
-4~----------------|-9-x-x-x-9-9-------|-x-x-x-9-9---------|-9-9-----9-9-------|
-2~----------------|-7-x-x-x-7-7-------|-x-x-x-7-7---------|-7-7-x-x-7-7-x-x---|
-------------------|-------------------|-------------------|-------------------|


-------------------|-------------------|-------------------|-------------------|
-------------------|-------------------|-------------------|-------------------|
-------------------|-------------------|-------------------|-------------------|
-9-9-----9-10------|-9-9-----9-9-------|-9-9-----9-10------|-9-----------9-----|
-7-7-x-x-7-8-------|-7-7-x-x-7-7-x-x---|-7-7-x-x-7-8-------|-7---x-x-x-x-7-----|
-------------------|-------------------|-------------------|-------------------|


-------------------|-------------------|-------------------|-------------------|
-------------------|-------------------|-------------------|-------------------|
-------------------|-------------------|-------------------|-------------------|
---------9---------|-9----------9------|---------9---------|-9-9-----9-9-------|
-x-x-x-x-7---x-x---|-7--x-x-x-x-7------|-x-x-x-x-7---x-x---|-7-7-x-x-7-7-x-x---|
-------------------|-------------------|-------------------|-------------------|


-------------------|-------------------|-------------------|-------------------|
-------------------|-------------------|-------------------|-------------------|
-------------------|-------------------|-------------------|-9-----------------|
-9-9-----9-10------|-9-9-----9-9-------|-9-9-----9-10------|-------------------|
-7-7-x-x-7-8-------|-7-7-x-x-7-7-x-x---|-7-7-x-x-7-8-------|-------------------|
-------------------|-------------------|-------------------|-------------------|

[ Tab from: http://www.guitaretab.com/m/misc-unsigned-bands/191232.html ]
-------------------|-------------------|-------------------|-------------------|
-------------------|-------------------|-------------------|-------------------|
-(9)----7---9------|-------------------|-------------------|-------------------|
-------------------|--9----------------|-(9)----7---9------|-------------------|
-------------------|-------------------|-------------------|--7----------------|
-------------------|-------------------|-------------------|-------------------|

                                                      ~~~~
-------------------|-------------------|-------------------|-12----------------|
-------------------|-------------------|-------------------|-------------------|
-------------------|---------------7---|-(7)--------9------|-------------------|
-------------------|-----7---9---7-7---|-(7)---9-----------|-------------------|
-(7)---------------|-7-7---7---7-------|-----7---7---------|-------------------|
-------------------|-------------------|-------------------|-------------------|


-(12)---10-12------|-------------------|-------------------|-------------------|
-------------------|-12----------------|-(12)---10-12------|-------------------|
-------------------|-------------------|-------------------|-9-----------------|
-------------------|-------------------|-------------------|-------------------|
-------------------|-------------------|-------------------|-------------------|
-------------------|-------------------|-------------------|-------------------|


-------------------|-------------------|-------------------|-------------------|
-11----------------|-12----------------|-(12)--------------|-------------------|
-------------------|-------------------|-------------------|-------------------|
-------------------|-------------------|-------------------|-5~----------------|
-------------------|-------------------|-------------------|-3~----------------|
-------------------|-------------------|-------------------|-------------------|


-------------------|-------------------|-------------------|-------------------|
-------------------|-------------------|-------------------|-------------------|
-------------------|-------------------|-------------------|-------------------|
-7~----------------|-4~----------------|-9-----------------|-7~----------------|
-5~----------------|-2~----------------|-7-----------------|-5~----------------|
-------------------|-------------------|-------------------|-------------------|


-------------------|-------------------|-------------------|-------------------|
-------------------|-------------------|-------------------|-------------------|
-------------------|-------------------|-------------------|-------------------|
-5~----------------|-7~----------------|-9-x-x-x-9-9-------|-x-x-x-9-----9-----|
-3~----------------|-5~----------------|-7-x-x-x-7-7-------|-x-x-x-7-----7-----|
-------------------|-------------------|-------------------|-------------------|


-------------------|-------------------|-------------------|-------------------|
-------------------|-------------------|-------------------|-------------------|
-------------------|-------------------|-------------------|-------------------|
-5~----------------|-7~----------------|-4~----------------|-9-----------------|
-3~----------------|-5~----------------|-2~----------------|-7-----------------|
-------------------|-------------------|-------------------|-------------------|


-------------------|-------------------|-------------------|-------------------|
-------------------|-------------------|-------------------|-------------------|
-------------------|-------------------|-------------------|-------------------|
-7~----------------|-2~----------------|-4~----------------|-9-x-x-x-9-9-------|
-5~----------------|-0~----------------|-2~----------------|-7-x-x-x-7-7-------|
-------------------|-------------------|-------------------|-------------------|

-------------------|-------------------|-------------------|-------------------|
-------------------|-------------------|-------------------|-------------------|
-------------------|-------------------|-------------------|-------------------|
-x-x-x-9-----9-----|-9-9-----9-9-------|-9-9-----9-10------|-9-9-----9-9-------|
-x-x-x-7-----7-----|-7-7-x-x-7-7-x-x---|-7-7-x-x-7-8-------|-7-7-x-x-7-7-x-x---|
-------------------|-------------------|-------------------|-------------------|


-------------------|
-------------------|
-------------------|
-9-9-----9-10-9-9--|
-7-7-x-x-7-8--7-7--|
-------------------|


K-On! Donít Say Lazy Guitar Tabs

Tabs by Joseph Sateriale

Email me at JoeBoy1995@gmail.com if you have any questions.

Until then... Keep Rockiní on!


Related for K-on - Dont Say Lazy tab