Song name
# A B C D E F G H I J K L M N O P Q R S T U V W X Y Z

Misc Unsigned Bands - Witchs Thane - In The Circle tab

h= hammer ons
p= pull offs
b= bend
x= mute note
.= Palm mute
~= Let it Ring Out
!= Quickly End The Note
Intro
A# -13b---------------------|
C  -------------------------|
B  -------------------------|
B  -------------------------|
B  -------------------------|
F# -------------------------|

Main Riff
A# -------------------------|
C  -------------------------|
B  -------------------------|
B  -------------------------| repeat a lot
B  -------------------------|
F# -0-0-0-0--3h4h5p---------|
    . . . .

Chorus
A# ----------------------------------|
C  ----------------------------------|
B  ----------------------------------|
B  ----------------------------------|
B  -0-0-0-0---3~-------5~------------|
F# -0-0-0-0---3~-------5~------------|
    . . . .

Ending
A# --------------------------|
C  --------------------------|
B  --------------------------|
B  --------------------------|
B  --------------------------|
F# -345345345345345345345345-

A# -------------------------|
C  -------------------------|
B  -------------------------|
B  -------------------------|
B  -xxxx--xxxx---5!---3!----|
F# -xxxx--xxxx---5!---3!----|
Tap to rate this tab
 
# A B C D E F G H I J K L M N O P Q R S T U V W X Y Z