Song name
# A B C D E F G H I J K L M N O P Q R S T U V W X Y Z

Misc Unsigned Bands - Witchs Thane - Barneys Song tab

x= Mute Note
b= bend
h= hammer ons
p= pull offs
.= palm mute
!= Quickly End The Note
~= Let The Note Ring

Intro
------------------------------|
------------------------------|
------------------------------|
------------------------------|
-8-8-8-8----------------------|
-8-8-8-8----------------------|

Main Riff
-------------------------|
-------------------------|
-------------------------|
-------------------------|
-------1---1-------------| Reapet alot
-x-x-x-1-x-1-------------|

Chorus
-------------------------|
-------------------------|
-------------------------|
-------------------------|
-8-8-8-8-8-8-------------|
-8-8-8-8-8-8-------------|

Main Riff
-------------------------|
-------------------------|
-------------------------|
-------------------------|
-------1---1-------------|
-x-x-x-1-x-1-------------|

Chorus
-------------------------|
-------------------------|
-------------------------|
-------------------------|
-8-8-8-8-8-8-------------|
-8-8-8-8-8-8-------------|

Main Riff
-------------------------|
-------------------------|
-------------------------|
-------------------------|
-------1---1-------------|
-x-x-x-1-x-1-------------|

Chorus
-------------------------|
-------------------------|
-------------------------|
-------------------------|
-8-8-8-8-8-8-------------|
-8-8-8-8-8-8-------------|

Solo
-11b-11b------------------------|
-11b-11b------------------------|
-----------7-5------------------|
---------------7-6-5------------|
---------------------7-6-5------|
--------------------------------|

Finger Tap This Whole Part:
Tap of the 12th fret
--------------------------------------------------------------9hold-tap12--| 7x
--------------------------------------------------9hold-tap 12-------------| 7 times
--------------------------------------9hold-tap 12-------------------------| 7 times
--------------------------9hold-tap 12-------------------------------------| 7 times
--------------9hold-tap 12-------------------------------------------------| 7 times
-9hold -tap 12-------------------------------------------------------------| 7times

no more finger tapping
-24b--------------------------------|
------------------------------------|
------------------------------------|
------------------------------------|
------------------------------------|
------------------------------------|

Chorus
-------------------------|
-------------------------|
-------------------------|
-------------------------|
-8-8-8-8-8-8-------------|
-8-8-8-8-8-8-------------|

Main Riff
-------------------------|
-------------------------|
-------------------------|
-------------------------|
-------1---1-------------|
-x-x-x-1-x-1-------------|

Chorus
-------------------------|
-------------------------|
-------------------------|
-------------------------|
-8-8-8-8-8-8-------------|
-8-8-8-8-8-8-------------|

Main Riff
-------------------------|
-------------------------|
-------------------------|
-------------------------|
-------1---1-------------|
-x-x-x-1-x-1-------------|

Chorus
-------------------------|
-------------------------|
-------------------------|
-------------------------|
-8-8-8-8-8-8-------------|
-8-8-8-8-8-8-------------|

Ending
--------------------------------|
--------------------------------|
--------------------------------|
--------------------------------|
-xxxx--8-8-8--------------------|
-xxxx--8-8-8--------------------|
       . . .
Tap to rate this tab
# A B C D E F G H I J K L M N O P Q R S T U V W X Y Z