Song name
# A B C D E F G H I J K L M N O P Q R S T U V W X Y Z

Misc Unsigned Bands - Fish N Chips - Alaskan Flounder Basket tab

D|-----------------------------------------------------------------------|
A|-----------------------------------------------------------------------|
F|-----------------------------------------------------------------------|x4
c|-----------------------------7-----------------------------------------|
G|-----8---7---------------5/7---8~~---8---7-------6/5---3---5---2-------|
D|-5-5---5---5-5-5-8-8-8p5-----------5---5---5-5-5-4/3-0-1-0-3-0-0-------|
   . .   .   . . . . .               .   .   . . .     .   .   .

D|------------------------------------------------------------------------|
A|------------------------------------------------------------------------|
F|------------------------------------------------------------------------|x2
c|-----------------------------7------------------------------------------|
G|-7-7---------------------5/7---8~~---------------6-5---3---5---2--------|
D|-5-5-5-5-5-5-5-5-8-8-8p5-----------5-5-5-5-5-5-5-4/3-0-1-0-3-0-0--------|
       . . . . . . . .               . . . . . . .     .   .   .

D|------------------------------------------------------------------------|
A|------------------------------------------------------------------------|
F|------------------------------------------------------------------------|x2
c|------------------------------------------------------------------------|
G|-7-7-------------------------8-------------------6-5---3---5---2--------|
D|-5-5-5-5-5-5-5-5-8-8-8p5-7/8---10~-5-5-5-5-5-5-5-4/3-0-1-0-3-0-0--------|
       . . . . . . . .               . . . . . . .     .   .   .

D|------------------------------------|
A|------------------------------------|
F|------------------------------------|x4
c|------------------------------------|
G|-----------------------------5------|
D|-0-0-0-0-0-0-0-0-0-0-6p0-3/5---6~~--|
   . . . . . . . . . .              
Tap to rate this tab
# A B C D E F G H I J K L M N O P Q R S T U V W X Y Z