Song name
# A B C D E F G H I J K L M N O P Q R S T U V W X Y Z

Misc Unsigned Bands - This Dying Sequel - The Storm Part I tab

The Storm Part 1 
by This Dying Sequel
Music written and tabbed my This Dying Sequel
Lyrics by Zac Meekins of This Dying Sequel

Drop C tuning  

Strings are tuned from low to high as CGCFAD

. = Palm mute
* = Pinch Harmonic
~ = Hold Note 

Intro (clean) x 2

d|--------------------------------------------|
a|--------------------------------------------|
f|--------------------------------------------|
c|------7--------------------7-----7--8--7--5-|
g|---78---87-5-5-87545----78---87--5--7--5--4-|
C|-0--------------------0---------------------|

Intro Pt 2. (distorted) x4 (Play after clean part)

d|--------------------------------------------|
a|--------------------------------------------|
f|--------------------------------------------|
c|------8*-------------------8*----7--8--7--5-|
g|---78---87-5-5-87545----78---87--5--7--5--4-|
C|-0--------------------0---------------------|

Pre Verse x 2

d|---------------------------------|
a|---------------------------------|
f|---------------------------------|
c|-0-0----0-0----10-878-753~~~0~~~-|
c|-0-0----0-0----10-878-753~~~0~~~-|
C|-0-0----0-0----10-878-753~~~0~~~-|
  \ . .    . . /              (play zero second time around only)
   \----------/
     play x3 

Verse Play the whole thing twice. 

d|------------------------------------------| -------\
a|------------------------------------------|        |
f|------------------------------------------|        |
c|-0-0-0-------0-0-0-8-7-5-0-0-0------------|        |
g|-0-0-0-5-7-8-0-0-0-------0-0-0-3-5-3-2*3*-|        |
C|-0-0-0-------0-0-0-------0-0-0------------|        | Play x2
   . . .       . . .       . . .                     |
                                                     |
d|------------------------------------------|        |
a|------------------------------------------|        |
f|-------------------5-3-2------------------|        |
c|-0-0-0-5-7-8-0-0-0-------0-0-0------------|        |
g|-0-0-0-------0-0-0-------0-0-0-3-5-3-2*3*-|        |
C|-0-0-0-------0-0-0-------0-0-0------------| -------/
   . . .       . . .       . . . 

(play this part right after second time through on above pattern)

d|------------------------|
a|------------------------|
f|------------------------|
c|-5--5-------8--8--------|
g|-5--5-8-7-5-8--8-10-8-7-|
C|-5--5-------8--8--------|

Pre Chorus

d|------------------------------------------------------------------------|
a|------------------------------------------------------------------------|
f|------------------------------------------------------------------------|
c|-0-0-0-0--0-0-0-0--0-0-0-0--0-0-0-0--0-0-0-0--0-0-0-0--0-0-0-0--0-0-0-0-|
g|-0-0-0-0--0-0-0-0--0-0-0-0--0-0-0-0--0-0-0-0--0-0-0-0--0-0-0-0--0-0-0-0-|
C|-0-0-0-0--0-0-0-0--0-0-0-0--0-0-0-0--0-0-0-0--0-0-0-0--0-0-0-0--0-0-0-0-|
   . . . .  . . . .  . . . .  . . . .  . . . .  . . . .  . . . .  . . . . 

d|------|
a|------|
f|------|
c|-0~~~-|
g|-0~~~-|
C|-0~~~-|

Chorus (Play x2)

d|----------------------------------|
a|----------------------------------|
f|----------------------------------|
c|-0-------3-------10-------5-------|
g|-0-(x18)-3-(x18)-10-(x18)-5-(x18)-|
C|-0-------3-------10-------5-------|

Intro Pt 2 (play x2 second time around)

d|--------------------------------------------|
a|--------------------------------------------|
f|--------------------------------------------|
c|------8*-------------------8*----7--8--7--5-|
g|---78---87-5-5-87545----78---87--5--7--5--4-|
C|-0--------------------0---------------------|

Pre Verse 2 x2

d|---------------------------------|
a|---------------------------------|
f|---------------------------------|
c|-0-0----0-0----10-878-753~~~0~~~-|
c|-0-0----0-0----10-878-753~~~0~~~-|
C|-0-0----0-0----10-878-753~~~0~~~-|
  \ . .    . . /              (play zero second time around only)
   \----------/
     play x3 

Verse 2 Play the whole thing twice. 

d|------------------------------------------| -------\
a|------------------------------------------|        |
f|------------------------------------------|        |
c|-0-0-0-------0-0-0-8-7-5-0-0-0------------|        |
g|-0-0-0-5-7-8-0-0-0-------0-0-0-3-5-3-2*3*-|        |
C|-0-0-0-------0-0-0-------0-0-0------------|        | Play x2
   . . .       . . .       . . .                     |
                                                     |
d|------------------------------------------|        |
a|------------------------------------------|        |
f|-------------------5-3-2------------------|        |
c|-0-0-0-5-7-8-0-0-0-------0-0-0------------|        |
g|-0-0-0-------0-0-0-------0-0-0-3-5-3-2*3*-|        |
C|-0-0-0-------0-0-0-------0-0-0------------| -------/
   . . .       . . .       . . . 

(play this part right after second time through on above pattern)

d|------------------------|
a|------------------------|
f|------------------------|
c|-5--5-------8--8--------|
g|-5--5-8-7-5-8--8-10-8-7-|
C|-5--5-------8--8--------|

Pre Chorus 2

d|------------------------------------------------------------------------|
a|------------------------------------------------------------------------|
f|------------------------------------------------------------------------|
c|-0-0-0-0--0-0-0-0--0-0-0-0--0-0-0-0--0-0-0-0--0-0-0-0--0-0-0-0--0-0-0-0-|
g|-0-0-0-0--0-0-0-0--0-0-0-0--0-0-0-0--0-0-0-0--0-0-0-0--0-0-0-0--0-0-0-0-|
C|-0-0-0-0--0-0-0-0--0-0-0-0--0-0-0-0--0-0-0-0--0-0-0-0--0-0-0-0--0-0-0-0-|
   . . . .  . . . .  . . . .  . . . .  . . . .  . . . .  . . . .  . . . . 

d|------|
a|------|
f|------|
c|-0~~~-|
g|-0~~~-|
C|-0~~~-|

Chorus 2 (Play x2)

d|----------------------------------|
a|----------------------------------|
f|----------------------------------|
c|-0-------3-------10-------5-------|
g|-0-(x18)-3-(x18)-10-(x18)-5-(x18)-|
C|-0-------3-------10-------5-------|

Bridge (Open 0 chord on strings CGC in background)

Then the Bridge is x2 Clean intro's
               and x2 Distorted intro's

Then Pre Verse again

Chorus 2 (straight to chorus, no verse) (Play x2)

d|----------------------------------|
a|----------------------------------|
f|----------------------------------|
c|-0-------3-------10-------5-------|
g|-0-(x18)-3-(x18)-10-(x18)-5-(x18)-|
C|-0-------3-------10-------5-------|

Outro x1 (Play after clean part)

d|--------------------------------------------|
a|--------------------------------------------|
f|--------------------------------------------|
c|------8*-------------------8*----7--8--7--5-|
g|---78---87-5-5-87545----78---87--5--7--5--4-|
C|-0--------------------0---------------------|

The Storm Part 1 
by This Dying Sequel
Music written and tabbed my This Dying Sequel
Lyrics by Zac Meekins of This Dying Sequel

Drop C tuning  

Strings are tuned from low to high as CGCFAD

. = Palm mute
* = Pinch Harmonic
~ = Hold Note 

Intro (clean) x 2

d|--------------------------------------------|
a|--------------------------------------------|
f|--------------------------------------------|
c|------7--------------------7-----7--8--7--5-|
g|---78---87-5-5-87545----78---87--5--7--5--4-|
C|-0--------------------0---------------------|

Intro Pt 2. (distorted) x4 (Play after clean part)

d|--------------------------------------------|
a|--------------------------------------------|
f|--------------------------------------------|
c|------8*-------------------8*----7--8--7--5-|
g|---78---87-5-5-87545----78---87--5--7--5--4-|
C|-0--------------------0---------------------|

Pre Verse x 2

d|---------------------------------|
a|---------------------------------|
f|---------------------------------|
c|-0-0----0-0----10-878-753~~~0~~~-|
c|-0-0----0-0----10-878-753~~~0~~~-|
C|-0-0----0-0----10-878-753~~~0~~~-|
  \ . .    . . /              (play zero second time around only)
   \----------/
     play x3 

Verse Play the whole thing twice. 

d|------------------------------------------| -------\
a|------------------------------------------|        |
f|------------------------------------------|        |
c|-0-0-0-------0-0-0-8-7-5-0-0-0------------|        |
g|-0-0-0-5-7-8-0-0-0-------0-0-0-3-5-3-2*3*-|        |
C|-0-0-0-------0-0-0-------0-0-0------------|        | Play x2
   . . .       . . .       . . .                     |
                                                     |
d|------------------------------------------|        |
a|------------------------------------------|        |
f|-------------------5-3-2------------------|        |
c|-0-0-0-5-7-8-0-0-0-------0-0-0------------|        |
g|-0-0-0-------0-0-0-------0-0-0-3-5-3-2*3*-|        |
C|-0-0-0-------0-0-0-------0-0-0------------| -------/
   . . .       . . .       . . . 

(play this part right after second time through on above pattern)

d|------------------------|
a|------------------------|
f|------------------------|
c|-5--5-------8--8--------|
g|-5--5-8-7-5-8--8-10-8-7-|
C|-5--5-------8--8--------|

Pre Chorus

d|------------------------------------------------------------------------|
a|------------------------------------------------------------------------|
f|------------------------------------------------------------------------|
c|-0-0-0-0--0-0-0-0--0-0-0-0--0-0-0-0--0-0-0-0--0-0-0-0--0-0-0-0--0-0-0-0-|
g|-0-0-0-0--0-0-0-0--0-0-0-0--0-0-0-0--0-0-0-0--0-0-0-0--0-0-0-0--0-0-0-0-|
C|-0-0-0-0--0-0-0-0--0-0-0-0--0-0-0-0--0-0-0-0--0-0-0-0--0-0-0-0--0-0-0-0-|
   . . . .  . . . .  . . . .  . . . .  . . . .  . . . .  . . . .  . . . . 

d|------|
a|------|
f|------|
c|-0~~~-|
g|-0~~~-|
C|-0~~~-|

Chorus (Play x2)

d|----------------------------------|
a|----------------------------------|
f|----------------------------------|
c|-0-------3-------10-------5-------|
g|-0-(x18)-3-(x18)-10-(x18)-5-(x18)-|
C|-0-------3-------10-------5-------|

Intro Pt 2 (play x2 second time around)

d|--------------------------------------------|
a|--------------------------------------------|
f|--------------------------------------------|
c|------8*-------------------8*----7--8--7--5-|
g|---78---87-5-5-87545----78---87--5--7--5--4-|
C|-0--------------------0---------------------|

Pre Verse 2 x2

d|---------------------------------|
a|---------------------------------|
f|---------------------------------|
c|-0-0----0-0----10-878-753~~~0~~~-|
c|-0-0----0-0----10-878-753~~~0~~~-|
C|-0-0----0-0----10-878-753~~~0~~~-|
  \ . .    . . /              (play zero second time around only)
   \----------/
     play x3 

Verse 2 Play the whole thing twice. 

d|------------------------------------------| -------\
a|------------------------------------------|        |
f|------------------------------------------|        |
c|-0-0-0-------0-0-0-8-7-5-0-0-0------------|        |
g|-0-0-0-5-7-8-0-0-0-------0-0-0-3-5-3-2*3*-|        |
C|-0-0-0-------0-0-0-------0-0-0------------|        | Play x2
   . . .       . . .       . . .                     |
                                                     |
d|------------------------------------------|        |
a|------------------------------------------|        |
f|-------------------5-3-2------------------|        |
c|-0-0-0-5-7-8-0-0-0-------0-0-0------------|        |
g|-0-0-0-------0-0-0-------0-0-0-3-5-3-2*3*-|        |
C|-0-0-0-------0-0-0-------0-0-0------------| -------/
   . . .       . . .       . . . 

(play this part right after second time through on above pattern)

d|------------------------|
a|------------------------|
f|------------------------|
c|-5--5-------8--8--------|
g|-5--5-8-7-5-8--8-10-8-7-|
C|-5--5-------8--8--------|

Pre Chorus 2

d|------------------------------------------------------------------------|
a|------------------------------------------------------------------------|
f|------------------------------------------------------------------------|
c|-0-0-0-0--0-0-0-0--0-0-0-0--0-0-0-0--0-0-0-0--0-0-0-0--0-0-0-0--0-0-0-0-|
g|-0-0-0-0--0-0-0-0--0-0-0-0--0-0-0-0--0-0-0-0--0-0-0-0--0-0-0-0--0-0-0-0-|
C|-0-0-0-0--0-0-0-0--0-0-0-0--0-0-0-0--0-0-0-0--0-0-0-0--0-0-0-0--0-0-0-0-|
   . . . .  . . . .  . . . .  . . . .  . . . .  . . . .  . . . .  . . . . 

d|------|
a|------|
f|------|
c|-0~~~-|
g|-0~~~-|
C|-0~~~-|

Chorus 2 (Play x2)

d|----------------------------------|
a|----------------------------------|
f|----------------------------------|
c|-0-------3-------10-------5-------|
g|-0-(x18)-3-(x18)-10-(x18)-5-(x18)-|
C|-0-------3-------10-------5-------|

Bridge (Open 0 chord on strings CGC in background)

Then the Bridge is x2 Clean intro's
               and x2 Distorted intro's

Then Pre Verse again

Chorus 2 (straight to chorus, no verse) (Play x2)

d|----------------------------------|
a|----------------------------------|
f|----------------------------------|
c|-0-------3-------10-------5-------|
g|-0-(x18)-3-(x18)-10-(x18)-5-(x18)-|
C|-0-------3-------10-------5-------|

Outro (distorted) 
d|--------------------------------------------|
a|--------------------------------------------|
f|--------------------------------------------|
c|------8*-------------------8*----7--8--7--5-|
g|---78---87-5-5-87545----78---87--5--7--5--4-|
C|-0--------------------0---------------------|
 
d|--------------------------------------------|
a|--------------------------------------------|
f|--------------------------------------------| 
c|------8*-------------------8*----7--8--7--5-|  
g|---78---87-5-5-87545----78---87--5--7--5--4-|
C|-0--------------------0---------------------|
                                   \--------/
                                    Play this last part four times and 
                                    let last note ring. 

FINETO! Enjoy! 

This is the song as heard on www.myspace.com/thisdyingsequel 


Tap to rate this tab
# A B C D E F G H I J K L M N O P Q R S T U V W X Y Z