Song name
# A B C D E F G H I J K L M N O P Q R S T U V W X Y Z

Misc Unsigned Bands - Matthew Horn - Inside tab

This song is one that i wrote, might sound different from how i play it from how u do 
i promise to get a video of me asap.

Inside

(intro)
--------------------------------------------------------|
--------0h1p0----------0h1p0----------------------------|
--------------0--------------0--------------------------| X 3
------2--------------2----------------------------------|
----0--------------3------------------------------------|
--------------------------------------------------------|

--------------------------------------------------------|
--------0h1p0----------0h1-3-1-0------------------------|
--------------0-----------------------------------------|
------2--------------2----------------------------------|
----0--------------3------------------------------------|
--------------------------------------------------------|

(1st)
----------------------------3--------0h2p0---------------|
--------0-------0h1p0--------3-------------0-------------|
----------0-----------0------------2---------------------| X 4
------2-------2------------------0-----------------------|
----0-------3-------------2------------------------------|
------------------------3--------------------------------|

the next set uses strumming but same movements and finger placement
as you have just used. Repeat with strumming 4 times.

(intro)

use the Chords Em, C modified, G , D for next part
(slow)

--------------------3---3----0h22h3p20--------------------|
----0---0----3-310---3---3--3-----------------------------|
-----0---0--0--------------2------------------------------| X 4
---2---2---2--------------0-------------------------------|
--2---2---3--------2---2----------------------------------|
------------------3---3-----------------------------------|
then strum the same thing, not to hard but sounds great!

(intro)

and thats it, i was told it sounds great but would like to hear the worlds
thoughts from just the tabs first, I'll put a video of me playing it as soon as i can. 
you enjoy and understand it!
Tap to rate this tab
# A B C D E F G H I J K L M N O P Q R S T U V W X Y Z