Song name
# A B C D E F G H I J K L M N O P Q R S T U V W X Y Z

Misc Unsigned Bands - Work Is Progress - Beautiful tab

THIS SONG IS REALLY EASY... ITS MOSTLY KEYBOARD AND DRUMS SO THE GUITAR IS JUST A
SMALL BACKUP STRUMMING.

ALL THE GUITAR IS THIS: (RILEY)
e------------------------------------|
B------------------------------------|
G------------------5-5-5-5-----------|
D--3-3-3-3-4-4-4-4-5-5-5-5--5-5-5-5--|(REPEAT THROUGH WHOLE SONG)
A--3-3-3-3-4-4-4-4-3-3-3-3--5-5-5-5--|
E--1-1-1-1-2-2-2-2----------3-3-3-3--|

BASS (CAMPBELL)
G---------------------------------|
D---------------------------------|
A-----------------3-3-3-3---------|
E--1-1-1-1-2-2-2-2--------3-3-3-3-|

KEYBOARD (CORBIN)
Tap to rate this tab
# A B C D E F G H I J K L M N O P Q R S T U V W X Y Z