Song name
# A B C D E F G H I J K L M N O P Q R S T U V W X Y Z

Misc Unsigned Bands - Work Is Progress - Here I Stand tab

Help us improve GuitareTab! Take a short survey!
Ok this is for my band. And Abbey. Its not completely done but you can work on it!
The parts can be rearranged

INTRO (Riley)
e------------------|
B------------------|
G------------------|
D--3-3-3-3-3-3-5-4-| x3
A--3-3-3-3-3-3-5-4-|
E--1-1-1-1-1-1-3-2-|

INTRO (Corbin)
e--1-1-1-1-1-1-3-2-|
B--1-1-1-1-1-1-3-2-| x3
G------------------|
D------------------|
A------------------|
E------------------|

VERSE (Riley)
e-----------        e--2---2-3--|
B--2-----1--        B--3---1-0--|
G--0---2-0--x2 THEN G--2---2-0--|
D--2---0-2--        D--------0--|x2 Then back to the first x2
A------2-3--        A--------2--|
E-----------        E--------3--|

VERSE (Corbin)
e-----------------------------|
B-----------------------------|
G--999-888-999-888-999-888-77-|
D-----------------------------| (Repeat Through Out All Verse)
A-----------------------------|
E-----------------------------|

CHORUS (Riley)
Same as intro (Most likely)

CHORUS (Corbin)
e--1-1-3-3-2-                             e-11-11-11-11-33-33-11-11-11-11-22-|
B--1-1-3-3-2-                             B-11-11-11-11-33-33-11-11-11-11-22-|
G------------Repeat until end, then play: G----------------------------------|
D------------                             D----------------------------------|
A------------                             A----------------------------------|
E------------                             E----------------------------------|

PRE-VERSE (Corbin)
e----------------------------------------------------------------|
B--9^----------------------------15^-14-13-12----------15^--9/10-|
G------9^--11^-12^----------------------------12-13-14-----------|
D----9^----------------------------------------------------------|
A------------------12^--11-10------------------------------------|
E-----------------------------12^--------------------------------|

PRE VERSE (Riley)
Just palm mute the chorus chords.

THEN REPEAT VERSE AND CHORUS AND THAT'S ALL I GOT SO FAR. ILL FINISH SOON.
Related for Work Is Progress - Here I Stand tab