Song name
# A B C D E F G H I J K L M N O P Q R S T U V W X Y Z

Misc Unsigned Bands - Xfactor1 - Never tab

i had to figure this out entirely by myself just by listening to the song. i wish 
Xfactor1 the best on achieving success on the 2009 mayhem festival tour!!!

e|----------------|----------------|----------------|----------------|
b|----------------|---------------4|----------------|----------------|
g|---------------5|----------------|---------------5|---------------3|
d|-----5---5-6----|-----5---5-6----|-----5---5-6----|-----5---5-6----|
a|-3-3---3-----3--|-3-3---3-----3--|-3-3---3-----3--|-3-3---3-----3--|
E|----------------|----------------|----------------|----------------|

e|----------------------------------------------------------------|
b|-----------------------------------------------4----------------|
g|---------------5---------------5-------------------------------3|
d|-----5---5-6---------5---5-6---------5---5-6---------5---5-6----|
a|-3-3---3-----3---3-3---3-----3---3-3---3-----3---3-3---3-----3--|
E|----------------------------------------------------------------|

e|----------------------------------------------------------------|
b|-----------------------------------------------4----------------|
g|---------------5---------------5--------------------------------|
d|-----5---5-6---------5---5-6---------5---5-6---------5---5-6-5-3|
a|-3-3---3-----3---3-3---3-----3---3-3---3-----3---3-3---3--------|
E|----------------------------------------------------------------|
Tap to rate this tab
 
# A B C D E F G H I J K L M N O P Q R S T U V W X Y Z