Song name
# A B C D E F G H I J K L M N O P Q R S T U V W X Y Z

Misc Unsigned Bands - Stephen Barnes - Shoot The Stars Down tab

e|----3-----3-----3----------------------------|
B|---3-----3-----3----------------------------|
G|---------------------------------------------|
D|---2-----2------------5----7----------------|
A|----2-----3-----2------5----7----------------|
E|----------------3------3----5----------------|

e|----3-----3-----3----------------------------|
B|---3-----3-----3----------------------------|
G|---------------------------------------------|
D|---2-----2------------5----5----------------|
A|----2-----3-----2------5----5----------------|
E|----------------3------3----2----------------|

I didn't put the rhythm
but thats the whole song
just keep repeating.
Tap to rate this tab
# A B C D E F G H I J K L M N O P Q R S T U V W X Y Z