Guitaretab - guitar tabs
Song name
# A B C D E F G H I J K L M N O P Q R S T U V W X Y Z

Misc Unsigned Bands - Stephen Barnes - My Darling My Dear tab

Here are the chords 
i didn't put the rhythm 

[ Tab from: http://www.guitaretab.com/m/misc-unsigned-bands/191654.html ]
Verse
e|---------------------------------------------------|
B|---------------------------------------------------|
G|----4x---4-x----4-x----4--4----------------------|
D|----5x---5-x----5-x----5--5----------------------|
A|----7-x---5-x----3-x----2---3----------------------|
E|---------------------------------------------------|

Chorus
e|----3-----3-----3-----3----------------------------|
B|---3-----3-----3-----3----------------------------|
G|----------2----------------------------------------|
D|----------------2-----2----------------------------|
A|---2------------2-----3----------------------------|
E|---3------2----------------------------------------|


X = Pick scratch.
Related for Stephen Barnes - My Darling My Dear tab