Song name
# A B C D E F G H I J K L M N O P Q R S T U V W X Y Z

Misc Unsigned Bands - None Too Soon - Memory Book tab

this is one of the songs off None Too Soon's first EP "This Book of Memories" comming 
12/12/10 check out the myspace at www.myspace.com/nonetoosoonmusic


e-------------------------------------|
b-----3--------------3--------------3-|
g----0---0---------0---0---------0----|  till pre chorus
d---0-----0--0---0-------0-0---0------|
a--3-------3---2----------2--3--------|
E-------------------------------------|
   x5  x5
e--3--3----|
b--3--3----|
g--0--0----|x4. listen for rhythm(pre chourus)
d--2--0----|
a--3--2----|
E--x--x----|


e--3---3---3----3---3---3---3--2~----|
b--3---3---3----3---3---3---3--3~----|
g--0---0---0----0---0---0---0--2~----|
d--0---2---2----2---0---2---2--0~----|Chorus
a--2---3---2----3---2---3---2--0~----|
E--3---x---0----x---3---x---0--x~----|

outro
e-------------------------------------------3~--------|
b-----3--------------3--------------3-------3~--------|
g----0---0---------0---0---------0---0------0~--------|
d---0-----0--0---0-------0-0---0------0--0--0~--------|
a--3-------3---2----------2--3---------3----2~--------|
E-------------------------------------------3~--------|

thats ittt! just listen to the song to get the timing and everything.
Tap to rate this tab
# A B C D E F G H I J K L M N O P Q R S T U V W X Y Z