Song name
# A B C D E F G H I J K L M N O P Q R S T U V W X Y Z

Misc Unsigned Bands - Lockstitch - Xenocide tab

This is the tab to the song XENOCIDE by the band LOCKSTITCH.

D|------------------------------------------------------------|-
A|------------------------------------------------------------|-
F|------------------------------------------------------------|-
C|------------------------------------------------------------|-
G|-8-7---5-4----6-5-------------------------------5--4--8--7--|-
C|-8-7---5-4----6-5-5-5-5-8-5-5-5-8-5-5-5-8-5-5-5-5--4--8--7--|-

|-----------------------------------------------------------------|-
|-----------------------------------------------------------------|-
|-----------------------------------------------------------------|-
|-----------------------------------------------------------------|-
|---------------------------------------------4-4-4-4-4-4---------|-
|-5-5-5-5-7-5-5-5-8-5-5-5-7-5-5-5-4-4-4-4-4-4-------------4-4-4-4-|-


|-----------------------------------------------------------------|-
|-----------------------------------------------------------------|-
|-----------------------------------------------------------------|-
|-----------------------------------------------------------------|-
|---------------------------------------------4-4-4-4-4-4---------|-
|-5-5-5-5-7-5-5-5-8-5-5-5-7-5-5-5-4-4-4-4-4-4-------------4-4-4-4-|-

|-----------------------------------------------------------------|-
|-----------------------------------------------------------------|-
|-----------------------------------------------------------------|-
|-----------------------------------------------------------------|-
|-----------------------------------------------------------------|-
|-5-5-5-5-4-4-4-4-1-1-1-1-4-4-4-4-5-5-5-5-4-4-4-4-1-1-1-1/10------|-

|-------------------------------------------------------------------|-
|-------------------------------------------------------------------|-
|-------------------------------------------------------------------|-
|-------------------------------------------------------------------|-
|-----5---4-----8-----7---10---h12------5---4-----8-----7---10--h12-|-
|-0-0---0---0-0---0-0---0-----------0-0---0---0-0---0-0---0---------|-

|-------------------------------------------------------------------|-
|-------------------------------------------------------------------|-
|-------------------------------------------------------------------|-
|-------------------------------------------------------------------|-
|-----5---4-----8-----7---10---h12------5---4-----8-----7---1~------|-
|-0-0---0---0-0---0-0---0-----------0-0---0---0-0---0-0---0---------|-

|-----------------------------------------------------------------|-
|-------------9-8-------------9-8-------------8-7-------------8-7-|-
|---------9-8-------------9-8-------------8-7-------------8-7-----|-
|-----------------------------------------------------------------|-
|-----------------------------------------------------------------|-
|-0-0-0-0---------0-0-0-0---------0-0-0-0---------0-0-0-0---------|-

|--------------------------------------------------------------- ----------------------------|-
|-------------------------------------------------------------------------------------------|-
|-------------------10-11-12-9-11-8-10----9----------------------10-11-12-9-11-8-10----9----|-
|----------10-11-12--------------------12---11----------10-11-12--------------------12---11-|-
|-10-11-12-------------------------------------10-11-12-------------------------------------|-
|-------------------------------------------------------------------------------------------|-

|-----------------------------------------------------------------|-
|-----------------------------------------------------------------|-
|-----------------------------------------------------------------|-
|-------------------------------------------------------------6-7-|-
|-----5---5-----5---5-----4-4-4-------1---1-----0-----0---7-8-----|-
|-0-0---0---0-0---0---0-0---------0-0---0---0-0---0-0---0---------|-

|------------------------------------------------------------------|-
|------------------------------------------------------------------|-
|------------------------------------------------------------------|-
|------------------------------------------------------------------|-
|-----5---5-----5---5-----4-4-4--------1---1---------4-----4---4-5-|-
|-0-0---0---0-0---0---0-0----------0-0---0---0-0-5-8---8-8---8-----|-

|-----------------------------------------------------------------|-
|-----------------------------------------------------------------|-
|-----------------------------------------------------------------|-
|-----------------------------------------------------------------|-
|-----------------------------------------------------------------|-
|-5-5-5-5-4-4-4-4-8-8-8-8-7-7-7-7-5-5-5-5-4-4-4-4-1-1-1-1-4-4-4-4-|-

|-----------------------------------------------------------------|-
|-----------------------------------------------------------------|-
|-----------------------------------------------------------------|-
|---------------------------------5----------------1--------------|-
|---------------------------------5----------------1--------------|-
|-5-5-5-5-4-4-4-4-8-8-8-8-7-7-7-7-5----------------1--------------|-

|-----------------------------------9------10----11-10-9-------9----------------|-
|-8-------8-8-8---10-8-----10-11--------11---------------11---------11----10--8-|-
|-------------------------------------------------------------------------------|-
|-------------------------------------------------------------------------------|-
|-------------------------------------------------------------------------------|-
|-------------------------------------------------------------------------------|-

|---------5---------------1---------------5-----------8--8------7-7 -|-
|-------6---6-----------2---2-----------6---6---------9--9------8-8-|-
|-----7-------7-------3-------3-------7-------7-------10-10-----9-9-|-
|---7-----------7---3-----------3---7-----------7-----10-10-----9-9-|-
|-5---------------1---------------5---------------8-8-------7-7-----|-
|-------------------------------------------------------------------|-

|---------------------------------------------------------------------------------|-
|---------------------------------------------------------------------------------|-
|---------------------------------------------------------------------------------|-
|---------15-12-15-12---------15-12-15-12---------15-12-15-12---------15-12-15-12-|-
|---------------------------------------------------------------------------------|-
|-0-0-0-0-------------0-0-0-0-------------0-0-0-0-------------0-0-0-0-------------|-

|---------------------------------------------------------------------|-
|---------------------------------------------------------------------|-
|---------------------------------------------------------------------|-
|---------12-8-12-8---------10-7-10-7---------8-5-8-5---------7-3-7-3-|-
|---------------------------------------------------------------------|-
|-8-8-8-8-----------7-7-7-7-----------5-5-5-5---------3-3-3-3---------|-


|----------------------------------------------------------------------------------------|-
|----------------------------------------------------------------------------------------|-
|----------------------------------------------------------------------------------------|-
|----------------------------------------------------------------------------------------|-
|------------8-8-7-7------------10-10-8-8-------------12-12-10-10------------13-13-15-15-|-
|-0-0------0---------0-0------0-----------0-0-------0------ -------0-0------0-------------|-

|-13----------------------12----------------------10----------------------9-------------|-
|----15----------------15----13----------------13----11----------------11---10----------|-
|-------14----------14----------12----------12----------10----------10---------9--------|-
|----------15----15----------------14----14----------------12----12--------------11-----|-
|-------------17----------------------15----------------------13--------------------12--|-
|---------------------------------------------------------------------------------------|-

|-----------------------------------------------------------------|-
|-----------------------------------------------------------------|-
|-----------------------------------------------------------------|-
|-------------------------------------------------------------6-7-|-
|-----5---5-----5---5-----4-4-4-------1---1-----0-----0---7-8-----|-
|-0-0---0---0-0---0---0-0---------0-0---0---0-0---0-0---0---------|-

|------------------------------------------------------------------|-
|------------------------------------------------------------------|-
|------------------------------------------------------------------|-
|------------------------------------------------------------------|-
|-----5---5-----5---5-----4-4-4--------1---1---------4-----4---4-5-|-
|-0-0---0---0-0---0---0-0----------0-0---0---0-0-5-8---8-8---8-----|-

|-----------------------------------------------------------------|-
|-----------------------------------------------------------------|-
|-----------------------------------------------------------------|-
|-----------------------------------------------------------------|-
|-----------------------------------------------------------------|-
|-5-5-5-5-4-4-4-4-8-8-8-8-7-7-7-7-5-5-5-5-4-4-4-4-1-1-1-1-4-4-4-4-|-

|-----------------------------------------------------------------|-
|-----------------------------------------------------------------|-
|-----------------------------------------------------------------|-
|---------------------------------5----------------1--------------|-
|---------------------------------5----------------1--------------|-
|-5-5-5-5-4-4-4-4-8-8-8-8-7-7-7-7-5----------------1--------------|-

|--------------------------------------------------------------|-
|--------------------------------------------------------------|-
|--------------------------------------------------------------|-
|----------------------8----7----------------------------------|-
|----------------------5----4------------------------3-7-3-----|-
|-0-3-7-0-2----0-3-7-0-----------0-3-7-0-2-----0-3-7-------7-3-|-

|--------------------------------------------------|-
|--------------------------------------------------|-
|--------------------------------------------------|-
|-0------------/1----4----1--5--------8----7----4--|-
|-0-------------1----4----1--5--------8----7----4--|-
|-0-------------1----4----1--5--------8----7----4--|-

|--------------------------------------------------|-
|--------------------------------------------------|-
|--------------------------------------------------|-
|-0------------/1----4----1--5---7----8---7--4h5p4-|-
|--------------------------------------------------|-
|--------------------------------------------------|-

Thanks, please rate!
Tap to rate this tab
# A B C D E F G H I J K L M N O P Q R S T U V W X Y Z