Song name
# A B C D E F G H I J K L M N O P Q R S T U V W X Y Z

Misc Unsigned Bands - Repo The Genetic Opera - Legal Assassin tab

"Legal Assassin" from Repo! the Genetic Opera

Isaac here again. Always open to criticism, comments, and corrections.
Contact me at chemicalphoenix@hotmail.com
Thanks and enjoy!

Legend:  /----Slide into
         x----Dead note
-----------------------------------------------------------------
Opening Riff

e|-----------------------------------|
B|-----------------------------------|
G|------------7-7-7------------------|
D|-2--2-------7-7-7------------------|
A|-2--2-------5-5-5------------------|
E|-0--0------------------------------|

Bass Part


e|-----------------------------------|
B|-----------------------------------|
G|-----------------------------------|
D|-----------------------------------|
A|-----------------------------------|
E|---3----5---3-5-7---3--5----3-2-0--|


Fill? (Whispers: Assassin! Murder Monster!)

e|---------------------------------------------------|
B|---------------------------------------------------|
G|-7-----------7----------8--8-------7-7-7-7--7-7-7--|
D|-7---(4x)----7-(4x------8--8-------7-7-7-7--7-7-7--|
A|-5-----------5----------6--6-------5-5-5-5--5-5-5--|
E|---------------------------------------------------|


(Bass Part)
(Fill)

Woooaaaahhhh
Author's Note:
First 3 chords should be played in time with the lyrics.
Listen to the recording carefully for overall timing.
e|----------------------------------------------|

B|-------------------------------------------------|
G|-7---5--2---5--7--5--7-------7-------------------|
D|-7---5--2---5--7--5--7-------7-(5x)--------------|
A|-5---3--0---3--5--3--5-------5-------------------|
E|-------------------------------------------------|

Acoustic Part
e|-----------7-----------|
B|-----------------------|
G|-------9---------------|
D|-----9-----------------|   Over and over and over...
A|---7-------------------|
E|-----------------------|

During the acoustic part,
there is another guitar in the background that plays this:
e|----------------------|
B|----------------------|
G|--4~-----7~----9~-----|
D|--4~-----7~----9~-----|
A|--2~-----5~----7~-----|
E|----------------------|

I am only living out a lie...

e|---------------------------------|
B|---------------------------------|
G|---7-7-7-7-7---9-----------------|
D|---7-7-7-7-7---9-(4x)--PAUSE (4x)|
A|---5-5-5-5-5---7-----------------|
E|---------------------------------|


""Shilo can never leave...""
Author's note:
Before doing this, listen to the recording closely for the rhythm.
It can be tricky.
e|--------------|-----------------------------------|
B|--------------|-----------------------------------|
G|-9-9---9--7-7-|--/12--14--12--14----16|-----------|
D|-9-9---9--7-7-|--/-X---X---x---x-----x|        ---|
A|-7-7---7--5-5-|--/10--12--10--12----14|        ---|
E|--------------|-----------------------|        ---|
                                                  |--(2x)
e|--------------|---------------------------|    ---|
B|--------------|---------------------------|    ---|
G|-9-9---9--7-7-|--/12---14----12---11----9-|    ---|
D|-9-9---9--7-7-|--/-x----x-----x----x----x-|-------|
A|-7-7---7--5-5-|--/10---12----10----9----7---------|
E|--------------|-----------------------------------|


(Fill)
(Woooooaaahhhh part)
(Acoustic part)

"Only living out a lie"
"I'm the Monster"

e|--------------------------------------|
B|--------------------------------------|
G|-9-9-9-9---9-10---10------------------|
D|-9-9-9-9---9-10---10------------------|     Repeat until end
A|-7-7-7-7---7--8----8------------------|
E|--------------------------------------|
Tap to rate this tab
# A B C D E F G H I J K L M N O P Q R S T U V W X Y Z