Song name
# A B C D E F G H I J K L M N O P Q R S T U V W X Y Z

Misc Unsigned Bands - Darren Smithterrence Zdunich - Seventeen tab

"Seventeen" from Repo! the Genetic Opera

I'm VERY certain that this is correct.
I'm open for corrections. Have one? E-mail me at Chemicalphoenix@hotmail.com
Enjoy!
-Isaac

Opening riff

e|-------------------------|
B|-------------------------|
G|-------------------------|
D|-------------------------|
A|-6-6-5-5-5-5-6-6-5-5-5-5-|
E|-4-4-3-3-3-3-4-4-3-3-3-3-|


Verse

e|---------------------------------|
B|---------------------------------|
G|-----------6-----------8--(4x)---|
D|-6---------6--(4x)-----8---------|
A|-6-(8x)----4-----------6---------|
E|-4-------------------------------|


Synth Riff (I've listed in 2 different octaves depending on which one you want to play)

Lower Octave

e|-----------------------------------|
B|-----------------------------------|
G|-----------------------------------|  (2x)
D|-----------------------------------|
A|------3------4-4-3-3-3-------------|
E|-4-6-----4-------------------------|


Higher one

e|--------8-----9-9-8-8-8----------------|
B|--9-11-----9---------------------------|
G|---------------------------------------|      (2x)
D|---------------------------------------|
A|---------------------------------------|
E|---------------------------------------|


Fill (Hey hey, hey hey!)
Note: first 2 chords should be played in time with the lyrics, then go crazy with the rhythm.
Same goes for the 2 after that.

e|------------------------------------|
B|------------------------------------|
G|--4--4-----4----------4--4---4------|
D|--4--4-----4-(8x)-----4--4---4--(8x)|
A|--2--2-----2----------2--2---2------|
E|------------------------------------|


(Synth Riff)
(Fill)
(Opening riff)
(Verse)
(Synth)
(Fill)

Breakdown
                  PM================
e|----6~~---------------------------|
B|----6~~---------------------------|
G|----6~~---------------------------|
D|----8~~---------------------------|             (8x)
A|----8~~-------------6-(8x)--7-(4x)|
E|----6~~---------------------------|

PM======         PM=================
e|-----------------------------------|
B|-----------------------------------|
G|-----------8-----------------------|
D|-----------8-----------------------|            Do this a bunch
A|-6--6-6----6---6-6-6-6-6-7-7-7-7---|
E|-----------------------------------|

End on

e|---------|
B|---------|
G|--8------|
D|--8------|
A|--6------|
E|---------|
Tap to rate this tab
# A B C D E F G H I J K L M N O P Q R S T U V W X Y Z