Song name
# A B C D E F G H I J K L M N O P Q R S T U V W X Y Z

Misc Unsigned Bands - Steel Harmony - Right There tab

-------------------------------------------------------------------------------
			     Right There- Steel Harmony
-------------------------------------------------------------------------------
Tabbed by:Rokai
Email:rokaiyotama@yahoo.com
Note: This is a song I wrote a little while ago. Yeah I know no one knows what it sounds 
but still I'm putting my/our songs on UG. By the way this is my first tab on UG.

Tuning:E-tuning
Note: Through the whole song they are 1's not 11's.
e|---------------------------------------------------------------------------|
B|6--6--6--66--666-----------------------------------------------------------|
G|5--5--5--55--555--5--5--5--55--555--3--3--33--333--1--1-11--0--0-----------|
D|3--3--3--33--333--5--5--5--55--555--3--3--33--333--1--1-11--0--0-----------|
A|------------------3--3--3--33--333--1--1--11--111--1--1-11--0--0-----------|
E|---------------------------------------------------------------------------|x2

e|---------------------------------------------------------------------------|
B|---------------------------------------------------------------------------|
G|335566338866556633551133---------------------------------------------------|
D|------------------------33551133-------------------------------------------|
A|--------------------------------335511330--1-1p0--1-1p0--1-1p0--0----------|
E|---------------------------------------------------------------------------|

e|---------------------------------------------------------------------------|
B|---------------------------------------------------------------------------|
G|---------------------------------------------------------------------------|
D|33--33--33--33--3-3--44--44--44--44--4--4----------------------------------|
A|11--11--11--11--1-1--22--22--22--22--6--2----------------------------------|
E|---------------------------------------------------------------------------|x2

e|---------------------------------------------------------------------------|
B|---------------------------------------------------------------------------|
G|---------------------------------------------------------------------------|
D|----3--3-3--3-------4--4-4--6--4-------------------------------------------|
A|11111111111111112222222222224--2-------------------------------------------|
E|---------------------------------------------------------------------------|x3

e|------------------------------------------------------------------------------|
B|------------------------------------------------------------------------------|
G|------------------------------------------------------------------------------|
D|----3--3-3--3-------4--4-4--6--4--3-------------------------------------------|
A|11111111111111112222222222224--2--1-------------------------------------------|
E|------------------------------------------------------------------------------|
                    3
Note:The last chord 1 is supposed to fade out some kind of way. If you have a wammy bar 
apply a small
waving sound untill the sound fades away. If you don't have a whammy try and bend 
it till it fades. Or if your playing with an amp just turn down the volume on your 
guitar slowly.
Tap to rate this tab
 
# A B C D E F G H I J K L M N O P Q R S T U V W X Y Z