Song name
# A B C D E F G H I J K L M N O P Q R S T U V W X Y Z

Misc Unsigned Bands - Work Is Progress - I Really Dont Care tab

THIS IS A REALLY FUN SONG, THATS NOT COMPLETELY FINISHED BUT THE MAIN RIFF IS EASY AND 
CATCHY AND UPBEAT. ITS PRETTY FLIPPIN SWEET.

INTRO (CORBIN)
e--2-2-2-2222-3-3-3-3333------------2-2-2-2222-|
B--3-3-3-3333-0-0-0-0000-3-3-3-3333-3-3-3-3333-|
G--2-2-2-2222-0-0-0-0000-3-3-3-3333-2-2-2-2222-| X3
D-------------0-0-0-0000-3-3-3-3333------------|
A-------------2-2-2-2222-----------------------|
E-------------3-3-3-3333-----------------------|

VERSE (CORBIN)
SAME AS INTRO ONLY SOFTER

VERSE (RILEY)
e------------------------------------------------|
B------------------------------------------------|
G--8-8--8-8--8-8--8-8--6-6--6-6--6-6--6-6--10-10-|
D--X-X--X-X--X-X--X-X--X-X--X-X--X-X--X-X--X--X--| (REPEAT)
A--6-6--6-6--6-6--6-6--4-4--4-4--4-4--4-4--8--8--|
E------------------------------------------------|

CHORUS (CORBIN)
e--2-2-2-2-2-X-X-2-X-X-2--3-3-3-3-3-X-X-3-X-X-3--|
B--3-3-3-3-3-X-X-3-X-X-3--0-0-0-0-0-X-X-0-X-X-0--|
G--2-2-2-2-2-X-X-2-X-X-2--0-0-0-0-0-X-X-0-X-X-0--|
D-------------------------0-0-0-0-0-X-X-0-X-X-0--|
A-------------------------2-2-2-2-2-X-X-2-X-X-2--|
E-------------------------3-3-3-3-3-X-X-3-X-X-3--|

e-------------------------X-X-2-X-X-2-X-X-2-|
B--3-3-3-3-3-X-X-3-X-X-3--X-X-3-X-X-3-X-X-3-|
G--3-3-3-3-3-X-X-3-X-X-3--X-X-2-X-X-2-X-X-2-|
D--3-3-3-3-3-X-X-3-X-X-3--------------------|
A-------------------------------------------|
E-------------------------------------------|

CHORUS (RILEY)
e------------------------------------------------|
B------------------------------------------------|
G--8-8-8-8-8-X-X-8-X-X-8--6-6-6-6-6-X-X-6-X-X-6--|
D--X-X-X-X-X-X-X-X-X-X-X--X-X-X-X-X-X-X-X-X-X-X--|
A--6-6-6-6-6-X-X-6-X-X-6--4-4-4-4-4-X-X-4-X-X-4--|
E------------------------------------------------|

e------------------------------------------------------|
B------------------------------------------------------|
G--10-10-10-10-10-10-X-X-10-X-X-10--X-X-8-X-X-8-X-X-8--|
D--X-X-X-X-X-X-X-X-X-X-X--X-X-X-X---X-X-X-X-X-X-X-X-X--|
A--8--8--8--8--8--8--X-X--8-X-X-8---X-X-6-X-X-6-X-X-6--|
E------------------------------------------------------|

PRE-VERSE (CORBIN)
SAME AS INTRO

REPEAT VERSE AND CHORUS

BRIDGE (RILEY)
PLUCK THE CHORDS INDIVIDUALLY

SOLO (CORBIN OR RILEY)
e--11----9-11---9--------------------------------------15^-|
B----10-----10----9---------------------------15-14--------|
G------11-----11---8--------------------------------13-----|
D-------------------9/7-7--7-------------------------------|
A------------------------8--8--9^-10-11--------------------|
E-------------------------8--8---------10-12^--------------|

REPEAT AND THATS PRETTY MUCH ALL I GOT RIGHT NOW... I KNOW THE SOLO IS PRETTY SIMPLE AND 
AND ITS NOTHIN MUCH BUT YUP THATS IT.
Tap to rate this tab
# A B C D E F G H I J K L M N O P Q R S T U V W X Y Z