Song name
# A B C D E F G H I J K L M N O P Q R S T U V W X Y Z

Misc Unsigned Bands - Unrenewable - The Zorrillas tab

Help us improve GuitareTab! Take a short survey!
-------------------------------------------------------------------------------
			     unrenewable - The Zorrillas
-------------------------------------------------------------------------------
Tabbed by: jvnfmr1991
Email: jvn_famor_shino@yahoo.com

Tuning: standard tuning

e|----3--3-----3--3-----3--3-----3--3---|\
B|-----3--------3--------3--------3-----| \
G|---0--0-----0--0-----0--0-----0--0----|  \   
D|-----------------------------0--------|  /  2x
A|-----------2--------3-----------------| /
E|--3-----------------------------------|/

e|---2~~~------------------|\
B|---3~~~------------------| \
G|---2~~~------------------|  \ do this on the last part of the intro
D|---0~~~------------------|  / 
A|---0~~~------------------| /
E|---0~~~------------------|/

Related for Unrenewable - The Zorrillas tab