Song name
# A B C D E F G H I J K L M N O P Q R S T U V W X Y Z

Misc Unsigned Bands - Snatch - Take Me Anywhere Your Going tab

-------------------------------------------------------------------------------
			 Take me Anywhere your going - Snatch
-------------------------------------------------------------------------------
Tabbed by:Tyler Jones
Think this is pretty accurate but didn't get the solo in there..enjoy!


Tuning:Standard

intro
e|---------------------------------------------------------------------------|
B|---------------------------------------------------------------------------|
G|--9-9--88--9-9--88--9-9--88--98--------------------------------------------|
D|--9-9--99--9-9--99--9-9--99--99--------------------------------------------|x16
A|---------------------------------------------------------------------------|
E|---------------------------------------------------------------------------|

verse

     All these years and now your leaving           Dont back away...
e|--0-------------------------------------------------------------------------|
B|--0------------------------------------5-5x55-5----9------------------------|
G|--1------------------------------------6-6x66-6-----9/88-9-98-9-98-99-98-8--|x2
D|--2------------------------------------6-6x66-6--------9-9-99-9-99-99---9---|
A|--2------------------------------------4-4x44-4-----------------------------|
E|--0-------------------------------------------------------------------------|

Bridge

       Stand my ground..
e|------------------------------------------------------------------------------|
B|--------------------------222-----------4------------4-/-6--------------------|
G|--------------------------222---x2------4-build------4-/-6--------------------|
D|-4-------------------------222-----------4------------4-/-6-------------------|
A|-2~-----------------------000-----------2------------2-/-4--------------------|
E|------------------------------------------------------------------------------|

Chorus

  Take me anywhere your going
e|---------------------------------------------------------------------------|
B|---------------------------9-----------------------------------------------|
G|-8h99-9-8h99-9-8h99-9-8h99--9/8--------------------------------------------|
D|-9--9-9-9--9-9-9--9-9-9--9-------------------------------------------------|x2
A|---------------------------------------------------------------------------|
E|---------------------------------------------------------------------------|
  Take me anywhere so i can see......
e|---------------------------------------------------------------------------|
B|---------------------------------------------------------------------------|
G|-8h99-11-9/8-8h99-11-9/8-8h99-11-9/8-8h99-11-9/8-9/99-99999--9-------------|
D|-9--9--------9--9--------9--9--------9--9--------8--9-88888--9-------------|
A|---------------------------------------------------------------------------|
E|---------------------------------------------------------------------------|

Middle 8

    Fight back don't you ever want me baby..........baby
e|---------------------------------------------------------------------------|
B|--2------------------------4-------------5---------------------------------|
G|--2------------------------4-------------6---------------------------------|x4
D|--2------------------------4-------------6---------------------------------|
A|--0------------------------2-------------4---------------------------------|
E|---------------------------------------------------------------------------|

Middle 8 build
e|---------------------------------------------------------------------------|
B|---------------------------------------------------------------------------|
G|-6----/----8----/----9----/----11----/----13---------/------16-------------|
D|-x----/----x----/----x----/----x-----/-----x---------/-------x-------------|
A|-4----/----6----/----7----/----9-----/----11---------/------14-------------|
E|---------------------------------------------------------------------------|


| /  slide up
| \  slide down
| h  hammer-on
| p  pull-off
| ~  vibrato
| +  harmonic
| x  Mute note
Tap to rate this tab
 
# A B C D E F G H I J K L M N O P Q R S T U V W X Y Z