Song name
# A B C D E F G H I J K L M N O P Q R S T U V W X Y Z

Misc Unsigned Bands - Black Bridge - Blood Run Drop tab

Help us improve GuitareTab! Take a short survey!
Rhythm intro 1:

e-------------------------------------|x4
b-------------------------------------|
g-------------------------------------|
d-------------------------------------|
a-------------------------------------|
e-0-9-0-8-0-7-0-5-3---0-9-8-7-0-3-0---|

Lead intro 1: (come in 2nd time around)

e--------------------------------------|
b--------------------------------------|
g-------------------0-3-5-0-3-5/12-----|
d-------------0-3-5--------------------|
a-------0-3-5--------------------------|
e-0-3-5--------------------------------|
                          (1,2,3,4)
e--------------------------------------|
b--------------------------------------|
g-0-5-7-0-5-7-0-7-9-0-9-11b------------|
d--------------------------------------|
a--------------------------------------|
e--------------------------------------|

          (Blood!)        (Run!)       (Drop!) x2
verse 1 Rhythm
e---------------------------------------------| x2
b---------------------------------------------|
g---------------------------------------------|
d-------------7-------------5-------------3---|
a-0000000000--7-0000000000--5--0000000000-3---|
e-0000000000----0000000000-----0000000000-----|

Verse 1 Lead
e---------------------------------------------| x2
b---------------------------------------------|
g---------------------------------------------|
d-----5-7-----5-7-----5-7-------12-14---------|
a---7-------7-------7-----12-14---------------|
e-0-------0-------0---------------------------|

Lead intro 1:

e--------------------------------------|
b--------------------------------------|
g-------------------0-3-5-0-3-5/12-----|
d-------------0-3-5--------------------|
a-------0-3-5--------------------------|
e-0-3-5--------------------------------|

e--------------------------------------|
b--------------------------------------|
g-0-5-7-0-5-7-0-7-9-0-9-11b------------|
d--------------------------------------|
a--------------------------------------|
e--------------------------------------|

pre-chorus rhythm x 3
e--------------------|
b--------------------|
g--------------------|
d--22222-000-22222---|
a--22222-000-22222---|
e--22222-000-22222---|

Lead:
e------------------|
b------------------|
g------------------|
d------------------|
a-000000000000000--|
e-000000000000000--|

outro:
rhythm:
e------------------|
b------------------|
g------------------|
d------------------|
a------------------|
e-0-9-8-0-7-5-3----|

Lead:
e------------------|
b------------------|
g------------------|
d-----5-7----------|
a---7--------------|
e-0----------------|

chorus rhythm x2

e------------------------------------|
b------------------------------------|
g------------------------------------|
d-0-9-0-8-0-7-5-3---0-9-0-8-0-7-3-0--|
a-0-9-0-8-0-7-5-3---0-9-0-8-0-7-3-0--|
e-0-9-0-8-0-7-5-3---0-9-0-8-0-7-3-0--|

          (Blood!)        (Run!)       (Drop!) x2
verse 1 Rhythm
e---------------------------------------------| x2
b---------------------------------------------|
g---------------------------------------------|
d-------------7-------------5-------------3---|
a-0000000000--7-0000000000--5--0000000000-3---|
e-0000000000----0000000000-----0000000000-----|

Verse 1 Lead
e---------------------------------------------| x2
b---------------------------------------------|
g---------------------------------------------|
d-----5-7-----5-7-----5-7-------12-14---------|
a---7-------7-------7-----12-14---------------|
e-0-------0-------0---------------------------|


Lead intro 1:

e--------------------------------------|
b--------------------------------------|
g-------------------0-3-5-0-3-5/12-----|
d-------------0-3-5--------------------|
a-------0-3-5--------------------------|
e-0-3-5--------------------------------|

e--------------------------------------|
b--------------------------------------|
g-0-5-7-0-5-7-0-7-9-0-9-11b------------|
d--------------------------------------|
a--------------------------------------|
e--------------------------------------|

Both:
e--------------------------------------|
b--------------------------------------|
g--------------------------------------|
d--------------------------------------|
a--/////////////////////////////-------|
e-//////////////////////////////-------|

Solo:

e-------------------------------------------------| x2
b-------------------------------------------------|
g-0-12-14-0-12-14-0-12-15-0-12-15-0-12-14-0-12-14-|
d-------------------------------------------------|
a-------------------------------------------------|
e-------------------------------------------------|

e-------------------------------------------------| x2
b-------------------------------------------------|
g-0-3-5-0-3-5-0-5-7-0-5-7-0-7-9-0-7-9-------------|
d-------------------------------------------------|
a-------------------------------------------------|
e-------------------------------------------------|


pre-chorus rhythm x 3
e--------------------|
b--------------------|
g--------------------|
d--22222-000-22222---|
a--22222-000-22222---|
e--22222-000-22222---|

Lead:
e------------------|
b------------------|
g------------------|
d------------------|
a-000000000000000--|
e-000000000000000--|

outro:
rhythm:
e------------------|
b------------------|
g------------------|
d------------------|
a------------------|
e-0-9-8-0-7-5-3----|

Lead:
e------------------|
b------------------|
g------------------|
d-----5-7----------|
a---7--------------|
e-0----------------|

chorus rhythm x2

e------------------------------------|
b------------------------------------|
g------------------------------------|
d-0-9-0-8-0-7-5-3---0-9-0-8-0-7-3-0--|
a-0-9-0-8-0-7-5-3---0-9-0-8-0-7-3-0--|
e-0-9-0-8-0-7-5-3---0-9-0-8-0-7-3-0--|

          (Blood!)        (Run!)       (Drop!) x2
verse 1 Rhythm
e---------------------------------------------| x2
b---------------------------------------------|
g---------------------------------------------|
d-------------7-------------5-------------3---|
a-0000000000--7-0000000000--5--0000000000-3---|
e-0000000000----0000000000-----0000000000-----|

Verse 1 Lead
e---------------------------------------------| x2
b---------------------------------------------|
g---------------------------------------------|
d-----5-7-----5-7-----5-7-------12-14---------|
a---7-------7-------7-----12-14---------------|
e-0-------0-------0---------------------------|
Related for Black Bridge - Blood Run Drop tab