Song name
# A B C D E F G H I J K L M N O P Q R S T U V W X Y Z

Misc Unsigned Bands - Ben Ditchfield - Symphony Of The Fallen tab

Intro & Main Theme
------------------------------------------------------------------------|
------------------------------------------------------------------------|
-------------------------------------------------------------------7-9--|
-----------------------------------------------------------7-8-10-------|
------9---9-7--------9---9-7------------9---9-7----7-8-10---------------|
--7-7---7--------7-7---7------------7-7---7-----------------------------|

verse,

------------------------------------------------------------------------|
------5---5^(1/4)--5--3-5-----------------------------------------------|
------------------------------------------------------------------------|
------------------------------------------------------------------------| X4
------------------------------------------------------------------------|
------------------------------------------------------------------------|
Tap to rate this tab
# A B C D E F G H I J K L M N O P Q R S T U V W X Y Z