Guitaretab - guitar tabs
Song name
# A B C D E F G H I J K L M N O P Q R S T U V W X Y Z

Misc Unsigned Bands - Nicholas Hooper - When Ginny Kissed Harry tab

When Ginny Kissed Harry
OST: Harry Potter and The Half Blood Prince
Composer: Nicholas Hooper

Tabbed by: Ralph Edward Romero
E-mail: uziriderrush@yahoo.com
Youtube link of me playin it: http://www.youtube.com/watch?v=d9dy8MOZTZ0

Comments:
This theme is the music from the scene where Ginny kisses Harry for the first time in 
Potter and the Half Blood Prince. Itís a romantic lullaby tune. Enjoy!

BTW, I suggest playing it in the classical position coz there are some notes where its 
to reach in between strings.


Tuning: Standard (EADGBE)

 e|-----------|---------------------|-------------|----------------------|
 B|---12------|---------12----------|-10----------|---------10-----------|
 G|---12------|-12----------12------|-11----------|-11-----------11------|
 D|---12------|-----12----------12--|-12----------|-----12-----------12--|
 A|-----------|---------------------|-------------|----------------------|
 E|-----------|---------------------|-------------|----------------------|

 e|-----------|---------------------|
 B|---8-------|--------8------------|
 G|---11------|-11--------11--9-----|
 D|---9-------|-----9------------9--|
 A|-----------|---------------------|
 E|-----------|---------------------|
[ Tab from: http://www.guitaretab.com/m/misc-unsigned-bands/191966.html ]
 e|-------------------|-----------------------|-----------|------------------7--|
 B|----------7--------|------------8----------|---8-------|--------8------------|
 G|-----7h9-----9-----|------9h11-----11------|---11------|-11--------11--9-----|
 D|--9-------------9--|--10---------------10--|---9-------|-----9---------------|
 A|-------------------|-----------------------|-----------|---------------------|
 E|-------------------|-----------------------|-----------|---------------------|

*REPEAT THIS WHOLE THING ^(x2)

 e|---------------------|----------------------|-----------|---------------------|
 B|---8--------8--------|--8---------8---------|---8-------|--------8------------|
 G|------9--------9-----|-----9---------9------|---11------|-11--------11--9-----|
 D|---------7--------7--|--------10--------10--|---9-------|-----9------------9--|
 A|---------------------|----------------------|-----------|---------------------|
 E|---------------------|----------------------|-----------|---------------------|

 e|---------------------|----------------------|-----------|------------------7--|
 B|---8--------8--------|--8---------8---------|---8-------|--------8------------|
 G|------9--------9-----|-----9---------9------|---11------|-11--------11--9-----|
 D|---------7--------7--|--------10--------10--|---9-------|-----9---------------|
 A|---------------------|----------------------|-----------|---------------------|
 E|---------------------|----------------------|-----------|---------------------|

 e|---------------------|----------------------|-----------|------------------------|
 B|---8--------8--------|--8---------8---------|---8-------|--------8---------------|
 G|------9--------9-----|-----9---------9------|---11------|-11--------11--9--------|
 D|---------7--------7--|--------10--------10--|---9-------|-----9------------9-----|
 A|---------------------|----------------------|-----------|------------------------|
  E|---------------------|----------------------|-----------|-----------------------|

THEN JUST REPEAT FROM THE START.
Fin.
Related for Nicholas Hooper - When Ginny Kissed Harry tab