Song name
# A B C D E F G H I J K L M N O P Q R S T U V W X Y Z

Misc Unsigned Bands - Cejay Wolbers - Fukk All Nite tab

-------------------------------------------------------------------------------
			     Fukk All Nite - CeJay Wolbers
-------------------------------------------------------------------------------
Tabbed by:CeJay Wolbers
Email:cwolbers@hotmail.com

Tuning:tuned down one step.
(intro riff)
e|------------------------------------------------------------------------|
B|------------------------------------------------------------------------|
G|-------4-5--0-2-0--------- x2---------------------------5-5-------3-----|
D|----2------0------4-0-2---------------------------0h3h5-5-5-0h3h5-3--x2-|
A|------------------------------------------------------------------------|
E|-0--------------------------------(pick slide)/-------------------------|
(intro cntd.)           (verses.....................................)
e|---------------------------------------------------------------------|
B|----------------------------------------------------+7---------------|
G|-------3-3-------5-----9-x-x-9-x-x-9-x-9------+7-+5-+7---------------|
D|-0h3h5-3-3-0h3h5-5-x2--7-x-x-7-x-x-7-x-7------+7-+5------------------|
A|---------------------------------------------------------------------|
E|---------------------------------------------------------------------|
 repeat the 9/7 after harmonics and then the harmonics change to othr harmonics(doesnt 
what harmonics you do)
(chorus)
e|-------------------------------------------|
B|-------------------------------------------|
G|-6-----2-----9-----4-----------------------|
D|-6-----2-----9-----4-----------------------|
A|-44444-00000-77777-22222-------------------|
E|-------------------------------------------|
(solo)
e|-15brbrbr15p12-----------------------------------------------------12-15|
B|---------------15p12------------------------------------------12-15-----|
G|--------------------14b-14p12----------------------------12-14----------|
D|------------------------------14p12-----------------12-14---------------|
A|------------------------------------14p12------12-14--------------------|
E|------------------------------------------15p12-------------------------|

e|-15p12---14p11---13p10----9p7p5x6--7p5p3x6------------------------------|
B|------12------11------10------------------------------------------------|
G|------------------------------------------------------------------------|
D|------------------------------------------------------------------------|
A|------------------------------------------------------------------------|
E|------------------------------------------------------------------------|
(outro)
e|-13p11p9x6-15p12p9x6-17p13p9x6-19p14p9x6--------------------------------|
B|------------------------------------------------------------------------|
G|------------------------------------------------------------------------|
D|-------------------------------------------4--4/--6--6/--9--9~----------|
A|-------------------------------------------4--4/--6--6/--9--9~----------|
E|-------------------------------------------2--2/--4--4/--7--7~----------|


| br  repeat bended note
| b  bend
| /  slide up
| \  slide down
| h  hammer-on
| p  pull-off
| ~  vibrato
| +  harmonic
| x  Mute note
============================================================================
Tap to rate this tab
# A B C D E F G H I J K L M N O P Q R S T U V W X Y Z