Song name
# A B C D E F G H I J K L M N O P Q R S T U V W X Y Z

Misc Unsigned Bands - Commonwrongz - Habitlual Meaning tab

this is my first song im writing...
h=hammer on  s=scream
    R=12 T=13
         intro
E[-----0h3---------0h3--------]
A[--------0h3---------0h3-----]
D[-----------0h3-0-------0h3--]
G[----------------------------]
B[----------------------------]
E[---------------------------s]

         chours
E[-----------------------------]
A[-------------------------3333]
D[-000000000000000033333333----]
G[-----------------------------]
B[-----------------------------]
E[-----------------------------]


      bridgE
E[---------------------------------]
A[---------------------------------]
D[---------------------------------]
G[-0-0-0-0-0-0-0-0-0-0-0-0-0-0-0-0-]
B[--R-R-R-R-T-T-T-T-R-R-R-R-T-T-T-T]
E[---------------------------------]


      introx2
      VERSEx2
      CHORUSx1
      VERSEx2
      CHORUSx2
      BRIDGEx1
      CHORUSx1
      end/introx3

Tap to rate this tab
# A B C D E F G H I J K L M N O P Q R S T U V W X Y Z