Song name
# A B C D E F G H I J K L M N O P Q R S T U V W X Y Z

Misc Unsigned Bands - Jolly Intense - Tba tab

Intro: (Acoustic Guitar)

       A sus4                  C
Do you feel like I want you to feel
      E sus4                A sus4
Can I be how you want me to be
         A sus4              C
Is there anything that I can do
         E sus4                    A sus4
Is there anyway you'll change your mind
______________________________________________________

Verse: (Electric Guitar, Heavy Distortion)

e|------------------------------------------|
B|------------------------------------------|
G|--7-7-7-7-7-7-7-7-7-7/5-5-5-5-5-5-5-5-5-5-| 
D|--7-7-7-7-7-7-7-7-7-7/5-5-5-5-5-5-5-5-5-5-|
A|--5-5-5-5-5-5-5-5-5-5/3-3-3-3-3-3-3-3-3-3-|
E|------------------------------------------|

e|------------------------------------------|
B|------------------------------------------|
G|--9-9-9-9-9-9-9-9-9-9/7-7-7-7-7-7-7-7-7-7-| 
D|--9-9-9-9-9-9-9-9-9-9/7-7-7-7-7-7-7-7-7-7-|
A|--7-7-7-7-7-7-7-7-7-7/5-5-5-5-5-5-5-5-5-5-|
E|------------------------------------------|
__________________________________________________

Solo Things:

e|------------------------------------------|
B|------------------------------------------|
G|--7-7-7-7-7-7-7-7/5-5/3/5-5-5-5-5-5-5-5-5-| 
D|--x-x-x-x-x-x-x-x/x-x/x/x-x-x-x-x-x-x-x-x-|
A|--5-5-5-5-5-5-5-5/3-3/1/3-3-3-3-3-3-3-3-3-|
E|------------------------------------------|

e|------------------------------------------|
B|------------------------------------------|
G|--9-9-9-9-9-9-9-9/7-7/5/7-7-7-7-7-7-7-7-7-| 
D|--x-x-x-x-x-x-x-x/7x7/5/x-x-x-x-x-x-x-x-x-|
A|--7-7-7-7-7-7-7-7/5-5/3/5-5-5-5-5-5-5-5-5-|
E|------------------------------------------|

e|------------------------------------------|
B|------------------------------------------|
G|--7-7-7-7-7-7-7-7/5-5/3/5-5-5-5-5-5-5-5-5-| 
D|--x-x-x-x-x-x-x-x/x-x/x/x-x-x-x-x-x-x-x-x-|
A|--5-5-5-5-5-5-5-5/3-3/1/3-3-3-3-3-3-3-3-3-|
E|------------------------------------------|

e|---------------------------------------------------|
B|---------------------------------------------------|
G|--9-9-9-9-9-9-9-9/7-7/5/11-11-11-11-11-11-11-11-11-| 
D|--x-x-x-x-x-x-x-x/x-x/x/x--x--x--x--x--x--x--x--x--|
A|--7-7-7-7-7-7-7-7/5-5/3/9--9--9--9--9--9--9--9--9--|
E|---------------------------------------------------|

e|------------------------------|
B|------------------------------|
G|--11-11-11-11/9-9/7/9-9-7-7-7-| 
D|--x--x--x--x-/x-x/x/x-x-x-x-x-|
A|--9--9--9--9-/7-7/5/7-7-7-7-7-|
E|------------------------------|

e|-----------------------------------|
B|-----------------------------------|
G|--13-13-13-13/11/13/15-15-15-15-15-| 
D|--x--x--x--x-/x-/x--x--x--x--x--x--|
A|--11-11-11-11/9-/11/12-12-12-12-12-|
E|-----------------------------------|

e|----------------------------------|
B|----------------------------------|
G|--12-12-12-12/10/8/10-10-10-10-10-| 
D|----------------------------------|
A|----------------------------------|
E|----------------------------------|

e|-----------------------------------|
B|-----------------------------------|
G|--14-14-14-14/12/10/12-12-12-12-12-| 
D|-----------------------------------|
A|-----------------------------------|
E|-----------------------------------|

e|----------------------------------|
B|----------------------------------|
G|--12-12-12-12/10/8/10-10-10-10-10-| 
D|----------------------------------|
A|----------------------------------|
E|----------------------------------|

e|-----------------------------------|
B|-----------------------------------|
G|--14-14-14-14/12/14/15-15-15-15-15-| 
D|-----------------------------------|
A|-----------------------------------|
E|-----------------------------------|

e|-------------------------------|
B|-------------------------------|
G|--16/17/18/19/20/(Let It Ring)-| 
D|-------------------------------|
A|-------------------------------|
E|-------------------------------|


Repeat intro (Acoustic Guitar)

A sus4          C

E sus4          A sus4

Tap to rate this tab
# A B C D E F G H I J K L M N O P Q R S T U V W X Y Z