Song name
# A B C D E F G H I J K L M N O P Q R S T U V W X Y Z

Misc Unsigned Bands - Cejay - Every Time tab

(intro)
e|-3-2h3----2h3----------3-------2--3-----3-----2-----2-----3--------|
B|-3-3---3--3--------3-------3------3-----3-----3-----3-----3--------|
G|-------0------0------0-------0----0-----2-----0-----2-----0--------|
D|--------------2--2-------2--------2-----0-----2-----0-----0--------|
A|----------------------------------------------------------2--------|
E|----------------------------------------------------------3--------|
(verses)
e|-----3-----3----2---2h3-3-2------------|
B|----------3----3---3-------------------|
G|---0----------2---0--------------------|
D|--0-----2----0---2---------------------|x2
A|-------3-------------------------------|
E|-3-------------------------------------|
chorus
e|-3-3-3-3------|
B|-3-3-1-3------|
G|-0-0-0-0------|
D|-0-2-0-2------|
A|-2-3----------|
E|-3------------|

sorry to tired to do solo email me you got my other song if you look at it it has my email.
Tap to rate this tab
# A B C D E F G H I J K L M N O P Q R S T U V W X Y Z