Guitaretab - guitar tabs
Song name
# A B C D E F G H I J K L M N O P Q R S T U V W X Y Z

Misc Unsigned Bands - Dagtang Lason - Nagmahal Ako Ng Bakla tab

Dagtang lason: 

"nagmahal ako ng bakla" (intro)

e |-12-10-9-12-10-9------------------------|
B |------------------12-10-10-10-9-10-12---|
G |---------------------------------------9|
D |----------------------------------------|
A |----------------------------------------|
E |----------------------------------------|
[ Tab from: http://www.guitaretab.com/m/misc-unsigned-bands/192467.html ]
e |--------------------------10-9----------|
B |----------9-10-12-10-----------12-10----|
G |-9-9-9-11-------------9-9---------------|
D |----------------------------------------|
A |----------------------------------------|
E |----------------------------------------|

aun narinig ko lang sa jeep to kanina ang kulit ng intro kya try ko kinapa..
aun sucess naman hahaha..
kung may gusto kyo pa-tab skin email me at shinobi_hunter@yahoo.com
enjoy mga gagong rapper! ^^
.IETI.marikina.akhire18. peace and love..
Related for Dagtang Lason - Nagmahal Ako Ng Bakla tab
Advertisement will be closed in 10 seconds