Guitaretab - guitar tabs
Song name
# A B C D E F G H I J K L M N O P Q R S T U V W X Y Z

Misc Unsigned Bands - Das Projekt - Blatt Papier tab

-------------------------------------------------------------------------------
			  Das Projekt (Berlin)   -  Blatt Papier
-------------------------------------------------------------------------------
Tabbed by: Martin Messner
Email: BigBonsai@hotmail.de

Tuning: Standart

//////////////////////////////////////////////
//                                          //
//  RATING THIS TAB TAKES ABOUT 5 SECONDS   //
//  AND HELPS ME TO IMPROVE MY WORK         //
//                                          //
//////////////////////////////////////////////


Intro
e|---------------------------|
B|-----9-----9-----9-----9---|
G|-------0-----0-----0-----0-| 2x (also 8 Mal die Abfolge)
D|---------------------------|    (8 times this pattern)
A|---8-----8-----8-----8-----|
E|---------------------------|
[ Tab from: http://www.guitaretab.com/m/misc-unsigned-bands/192613.html ]
der Hauptteil (the main part)
e|-------------------------------------------------------------------|
B|----4-------4------8-------8-------8-----9-------9-----4-------4---|
G|------0-------0------0-------0-------0-----0-------0-----0-------0-|
D|-------------------------------------------------------------------|
A|--3-------3------6-------6-------6-----8-------8-----3-------3-----|
E|-------------------------------------------------------------------|


e|-------------------------------------------------------|
B|----4-------4-3--1-----1--1-----3-----4----------------|
G|------0-------------3-------0-----0----(0)-------------|
D|-------------------------------------------------------|
A|--3-------3---------------3---3-----3-----(3)----------|
E|--------------3-(3)(3)(3)------------------------------|
This Part is not that easy ;)


Zupft die Saiten am besten mit der Technik der akustischen Gitarre (ohne Plektrum;Daumen 
Mittel- und Zeigefinger / Ring- und Mittelfinger)

Its best using Hybrid Picking like we are used to with acoustic guitar (not played with 
thumb + middle finger and pointer/ring finger and middle finger)

Die Technik kann man auch kurz im youtube video erkennen. (1:08 - 1:11)

This technique is also shown on the youtube video at 1:08 - 1:11.


Die weiteren Instrumente werde ich vielleicht noch tabben.

Other instruments will maybe follow.

http://www.youtube.com/watch?v=bRL07vkd9e8
Wirklich ein Hammer-Lied. Unglaublich, dass sone Band eigentlich so unbekannt ist =(


Martin
Related for Das Projekt - Blatt Papier tab