Song name
# A B C D E F G H I J K L M N O P Q R S T U V W X Y Z

Misc Unsigned Bands - A Simple Auld Salad - Aldi And Lidl tab

intro riff


E||-------------------------------------------||
B||-------------------------------------------||
G||*-----------------------------------------*||
D||*-----7h9p7-------9h11p9------------------*||
A||---9-9-----9-11-11------11-----------------||
E||-------------------------------------------||
reapeat 4 times


verse chords:

E||-------------------------------------------||
B||-------------------------------------------||
G||*--7------11------------------------------*||
D||*--7---7--11--11--------------------------*||
A||---9---7--9---11---------------------------||
E||-------9------9----------------------------||

just listen for the beat and you'll be fine.
Tap to rate this tab
# A B C D E F G H I J K L M N O P Q R S T U V W X Y Z