Song name
# A B C D E F G H I J K L M N O P Q R S T U V W X Y Z

Misc Unsigned Bands - A Simple Auld Salad - Burco Boiler tab

main riff:

E||-------------------------------------------||
B||-------------------------------------------||
G||*-----------------------------------------*||
D||*-----------------------------------------*||
A||-------------------------------------------||
E||-5-5-777-7-8-8-88-7-77-10-10-12-12-1212----||

(or play it an octave up on the g string, whatever works)


verse:
(listen for the rythem, if your lookin at this tab youve heard the song at least once)

E||-------------------------------------------||
B||----7--------------------------------------||
G||*---6--9--9-------------------------------*||
D||*9--5--9--9-------------------------------*||
A||-9--7--7--7--------------------------------||
E||-7--5--------------------------------------||


"i want burco"

E||----------------------------------------------------||
B||----------------------------------------------------||
G||*--------------------------------------------------*||
D||*-5-55-55-3-5--------------------------------------*||
A||--5-55-55-3-5---------------------------------------||
E||--3-33-33/1/3---------------------------------------||




FIN

Tap to rate this tab
 
# A B C D E F G H I J K L M N O P Q R S T U V W X Y Z