Song name
# A B C D E F G H I J K L M N O P Q R S T U V W X Y Z

Misc Unsigned Bands - Abnormality - Epitomize The Weak tab

Note:  I just copied this tab from the .txt files Abnormality uploaded on their Myspace 
 No credit to me whatsoever.

Abnormality - Epitomize the Weak (standard tuning E-A-D-G-B-E, except 7-string 
where noted)


riff 1 - 4x
-----------------------------------------|
-----------------------------------------|
-----------------------------------------|
-----------------------------------------|
-2-3-5-3-5-6-2-3-5-6-5-3-5-6-5-3-5-3-2-3-|
-0-1-3-------0-1-3-4-3-------------------|
 pm...	     .........


riff 2a (gtr 1) - 4x				    1x
--------------------------------------------------||-------------------------|
-------------------------------------------------.||-------------------------|
-------------------15-16-------------------16-17--||-------------------------|
-------------14-15-------------------15-16--------||-------------------------|
-------13-14-------------------14-15-------------.||-------13-14-------14-15-|
-12-13-------------------13-14--------------------||-12-13-------13-14-------|


riff 2a (gtr 2) - 4x		    1x
----------------------------------||-----------------|
---------------------------------.||-----------------|
-------------3-4-------------4-5--||-----------------|
---------2-3-------------3-4------||-----------------|
-----1-2-------------2-3---------.||-----1-2-----2-3-|
-0-1-------------1-2--------------||-0-1-----1-2-----|


riff 2b - 8x        riff 3a - 8x        riff 3b------------------| 4x
-----------------    ------------------    ----------------------|
-----------------    ------------------    ----------------------|
-----------------    ------------------    ----------------------|
-----------------    -4-----3----------    -4-----3-2-------2----|
-----1-2-----2-3-    -2-4-3-1-----1----    -2-4-3-1-0-4-3-4-0-3--|
-0-1-----1-2-----    ---2-1---0120-021-    ---2-1-----2-1-2---1--|
			   pm.	 .... ...	   ...     .....   .


bridge 1 - 1x
---------3-------|
-2---4-3-1---2---|
-0---2-1-----0---|
-----------------|
 pm  ...


riff 4a (gtr 1 - 7 str) - 4x	 (1st & 3rd)
---------------------|----------------------||
---------------------|----------------------||
---------------------|---------------------.||
---------------------|----------------------||
-2222-5555-4444-7777-|-9999-9999-9999-9999-.||
-2222-5555-4444-7777-|-9999-9999-9999-9999--||
-0000-3333-2222-5555-|-7777-7777-7777-7777--||


Riff 4a Continued	(2nd & 4th)
-----------------------------------|
-----------------------------------|
-----------------------------------|
-----------------------------------|
-9999-9999-------------------------|
-9999-9999-------------------------|
-7777-7777-9-6-0-8-5-0-7-4-0-6-3-0-|
	   .......................


riff 4a (gtr 2 - 6 str) - 4x
-----------------------------|---------------------|
-----------------------------|---------------------|
-----------------------------|---------------------|
-----------------------------|---------------------|
-9777-12121212-11111111-2222-|-4444-4444-4444-4444-|
-7777-10101010--9-9-9-9-0000-|-2222-2222-2222-2222-|


riff 4b (gtr 1 - 7 str) - 8x
---------------------------------|---------------------|
---------------------------------|---------------------|
---------------------------------|---------------------|
---------------------------------|---------------------|
---------------------------------|---------------------|
---------------------------------|---------------------|
-0-3-2-0-3-5-6-5-2-5-3-2-5-7-8-7-|-7777-7777-9777-9797-|
 pm.............................


riff 4b (gtr 2 - 6 str) - 8x
--------------------------------------------|
--------------------------------------------|
--------------------------------------------|
--------------------------------------------|
--------------------------------------------|
-7-10-9-7-10-12-13-12-9-12-10-9-12-14-15-14-|
 pm........................................

Riff 4b Continued
-------------------------------------|
-------------------------------------|
-------------------------------------|
-------------------------------------|
-------------------------------------|
-14141414-14141414-16141414-16141614-|

riff 5 - 4x
-------------------|-----------------|
-------------------|-----------------|
-------------------|-----------------|
-------------------|-----------------|
------5---6--------|-5---6---5---8---|
-03/5---6---7-03/5-|---6---7---6---9-|


riff 6a - 2x
--------------------------------------|-------------------------------------|
--------------------------------------|-------------------------------------|
--------------------------------------|-------------------------------------|
-2-5-4-3-4/5\4-2-4-3-3/4\3-2-5-3-2-3*-|-2-5-4-3-4/5\4-2-4-3-3/4\3-2-5-3*----|
-0-3-2-1-2/3\2-0-2-1-1/2\1-0-3-1-0----|-0-3-2-1-2/3\2-0-2-1-1/2\1-0-3-------|
 pm.....       .....	   .......	.......	      .....	  ...


riff 6b - 2x
--------------------------------------|-------------------------------------|
--------------------------------------|-------------------------------------|
--------------------------------------|-------------------------------------|
---------4/5\4-------3/4\3------------|---------4/5\4-------3/4\3-----------|
-----------------------------------3*-|---------------------------2-5-3*----|
-0-3-2-1-2/3\2-0-2-1-1/2\1-0-3-1-0----|-0-3-2-1-2/3\2-0-2-1-1/2\1-0-3-------|
								  pm.

bridge 2 - 1x			riff 7 - 4x
--------------------		---------------------------------|
--------------------		---------------------------------|
--------------------		---------------------------------|
--------------------		---------------------------------|
-2-5-3*-2-5-3*------		-7-6-5-0-3-0-5-0-3-0-2-0-2-3-2-0-|
-0-3----0-3---------		---------------------------------|
 pm.	...


riff 8 - 2x
------------------|-----------------|------------------|------------------|
------------------|-----------------|------------------|------------------|
------------------|-----------------|------------------|------------------|
------------------|-----------------|------------------|------------------|
-----5---8650-----|-----5---6-5---8-|-----5---8650-----|-----5---20202320-|
-0-3---3-----8650-|-0-3---3-----6---|-0-3---3-----8650-|-0-3---3----------|
	 pm......			      ........

outro
------------------|------------------|------------------|
------------------|------------------|------------------|
------------------|------------------|------------------|
------------------|------------------|------------------|
-----5---20202320-|-----5---20202320-|-----5---20202320-|
-0-3---3----------|-0-3---3----------|-0-3---3----------|


------------------|--------------------|--------------------|---|
------------------|--------------------|--------------------|---|
------------------|--------------------|--------------------|---|
------------------|--------------------|--------------------|---|
20202320-20202320-|-202320-202320-2320-|-202320-202320-2320-|-2-|
------------------|--------------------|--------------------|-0-|
Tap to rate this tab
# A B C D E F G H I J K L M N O P Q R S T U V W X Y Z