Guitaretab - guitar tabs
Song name
# A B C D E F G H I J K L M N O P Q R S T U V W X Y Z

Misc Unsigned Bands - Melissa Polinar - Meant To Be tab

This is my first tab. Tell me how I did.

You need a capo on the second fret.

The tab is very flexible. There are some minor variations at some points when repeating.

Arrangement:
Verse (x2)
Pre Chorus
Chorus
Verse
Pre Chorus
Chorus
Bridge
Chorus


Verse

     A          A                 A   A          A
E |------X----------X---------------------X----------X------|
B |--2---X------2---X-------------2---2---X------2---X------|
G |--2---X------2---X-------------2---2---X------2---X------|
D |--2---X------2---X-------------2---2---X------2---X------|
A |--0---X------0---X-------------0---0---X------0---X------|
E |------X----------X----0h2--------------X----------X------|

Instead of fretting this A with fingers 1-3, you should fret it with 2-4. The 0h2 should 
done with your thumb.

E |------X----------X--------------------X----------X------|
B |--2---X------2---X------------3---3---X------3---X------|
G |--2---X------2---X------------2---2---X------2---X------|
D |--X---X------X---X------0-----X---X---X------X---X------|
A |--2---X------2---X------------2---2---X------2---X------|
E |------X----------X--------------------X----------X------|


E |------X-------------X-------------X-------------X------|
B |--2---X------2------X---------2---X------2------X------|
G |--2---X------2------X---------1---X------1------X------|
D |--0---X------0------X---------0---X------0------X------|
A |--0---X------0------X---------0---X------0------X------|
E |------X-------------X-------------X-------------X------|


E |----------------------0---------------(TAP 2x)---|
B |------------------0-------0h2~~~~~~~~~(TAP 2x)---|
G |----------2---------------2-----------(TAP 2x)---|
D |------2-------------------2-----------(TAP 2x)---|
A |--0----------0------------0-----------(TAP 2x)---|
E |--------------------------------------(TAP 2x)---|


Pre-Chorus


E |--------------------------X-----------X---|
B |--------------------------X-------3---X---|
G |--------------------------X-------4---X---|
D |--------------------------X-------4---X---|
A |--5-----4-----------2-----X-------2---X---|
E |---------------4----------X-----------X---|


E |-------------------------X--------------(TAP 2x)---|
B |-------------------------X-------3------(TAP 2x)---|
G |-------------------------X-------4------(TAP 2x)---|
D |-------------------------X-------4------(TAP 2x)---|
A |--5-----4-----------2----X-------2------(TAP 2x)---|
E |--------------4----------X--------------(TAP 2x)---|


Chorus
[ Tab from: http://www.guitaretab.com/m/misc-unsigned-bands/192681.html ]
     A         Amaj7      A7         A7
E |------X----------X----------X----------X---|
B |--2---X------2---X------2---X------2---X---|
G |--2---X------1---X------0---X------0---X---|
D |--2---X------2---X------2---X------2---X---|
A |--0---X------0---X------0---X------0---X---|
E |------X----------X----------X----------X---|


E |-----------------------------------------|
B |---------2--------5---------3--------6---|
G |---------0--------0---------4--------7---|
D |---------2--------5---------4--------7---|
A |--0--1-------1/4-------0--2------2/5-----|
E |-----------------------------------------|


E |--------------X--------------X--------------X--------------X---|
B |------3---3---X------3---3---X------3---3---X------3---3---X---|
G |------4---4---X------4---4---X------4---4---X------4---4---X---|
D |------4---4---X------4---4---X------4---4---X------4---4---X---|
A |---0--2---2---X------2---2---X------2---2---X------2---2---X---|
E |--------------X---------------X-------------X--------------X---|

                    F   F          E
E |----------X--------------X------------(TAP)------0---|
B |----------X--------------X------------(TAP)------0---|
G |----------X------2---2---X------1-----(TAP)----------|
D |----------X------3---3---X------2-----(TAP)----------|
A |----------X------3---3---X------2-----(TAP)----------|
E |--0--1----X------1---1---X------0-----(TAP)----------|


E |----------------------0--------------(TAP 2x)---|
B |------------------0-------0h2~~~~~~~~(TAP 2x)---|
G |----------2---------------2----------(TAP 2x)---|
D |------2-------------------2----------(TAP 2x)---|
A |--0----------0------------0----------(TAP 2x)---|
E |-------------------------------------(TAP 2x)---|


Bridge


E |--2------1---------(TAP)----X----------X----------X---|
B |--3------3------2--(TAP)----X------2---X------2---X---|
G |--2------2------2--(TAP)----X------1---X------0---X---|
D |--0------0------2--(TAP)----X------2---X------2---X---|
A |--0------0------0--(TAP)----X------0---X------0---X---|
E |-------------------(TAP)--=-X----------X----------X---|


E |-----------X----------X--------------X----------X---|
B |-------3---X----3-----X------3---3---X------3---X---|
G |-------4---X----4-----X------4---4---X------4---X---|
D |-------4---X----4-----X------4---4---X------4---X---|
A |---2-------X----2-----X---0h2----2---X------2---X---|
E |-----------X----------X--------------X----------X---|


E |----------------0-------0----|
B |-------------0----------0----|
G |---------11-------------10---|
D |-----11-----------------10---|
A |--8---------------------7----|
E |-----------------------------|
Related for Melissa Polinar - Meant To Be tab
Melissa Polinar - Meant To Be chords by Misc Unsigned Bands