Song name
# A B C D E F G H I J K L M N O P Q R S T U V W X Y Z

Misc Unsigned Bands - Skull Fox - For The Sake Of Retribution tab

Help us improve GuitareTab! Take a short survey!
SKULL FOX

FOR THE SAKE OF RETRIBUTION (Bloodshed Rendered E.P)

2009

Written by Jam C Fowles.

This is in C# standard tuning.

Main Riff

|---------------------------------------------------------------------|
|---------------------------------------------------------------------|
|---------------------------------------------------------------------|
|----------------------------------------------------------7----------|
|----10-7~~--------5---10-7~~------------10-7~~--------5--------------|
|3-0---------0-3-0---0---------0-0-0-3-0---------0-3-0---0---5~~------|

Verse Riff - "It's where I'm to be kept..."

|---------------------------------------------------------------------|
|---------------------------------------------------------------------|
|---------------------------------------------------------------------|
|----7/-9~~----------------------------7/-9~~-------9/-7--------------|
|----5/-7~~-----------10-7~~-----------5/-7~~-------7/-5---/10-7~~----|
|0-0--------0-0-0-0-0--------0-0-0-0-0--------0-0-0------0------------|

Pre- Chorus "...and Now I'm living in your vengeance.."

|---------------------------------------------------------------------|
|---------------------------------------------------------------------|
|---------------------------------------------------------------------|
|-------------------------------5------------7/-9---------------------|
|7-------9---10--9---------10~~-3---5/-777---5/-7---5~~---------------|
|5-5-555-7-0-8-0-7-0-10h12--------0-3/-555-0------0-3~~---------------|


|---------------------------------------------------------------------|
|---------------------------------------------------------------------|
|---------------------------------------------------------------------|
|-------------------------------5------------5------------5-----------|
|7-------9---10--9---------10~~-3---5/-777---3---5/-777---3---5/-777--|
|5-5-555-7-0-8-0-7-0-10h12--------0-3/-555-0---0-3/-555-0---0-3/-555--|

*Pickscrape*

Chorus

|----0------------------------0---------------------------------------|
|-----0------------------------0--------------------------------------|
|------------5------------------------5-------------------------------|
|2-----------5----5---7---2-----------5----7---9----------------------|
|2-----------3----5---7---2-----------3----7---9----------------------|
|0----------------3---5---0----------------5---7-/12\-----------------|

Post Chorus

|---------------------------------------------------------------------|
|---------------------------------------------------------------------|
|---------------------------------------------------------------------|
|--------------------------------------------------5h7~~--------------|
|5h7-5h7-------5/7p5h7~~---------5h7-5h7-------5/7--------------------|
|--------0h3h5-----------0-0-0-0---------0h3h5-----------5-5-5-5------|

|---------------------------------------------------------------------|
|---------------------------------------------------------------------|
|---------------------------------------------------------------------|
|--------------------------------------------------5------------------|
|5h7-5h7-------5/7p5h7~~---------5h7-5h7-------5/7---7~~--------------|
|--------0h3h5-----------0-0-0-0---------0h3h5-----------0-0-0-0------|

I'll get round to the rest of the bits shortly
Related for Skull Fox - For The Sake Of Retribution tab