Song name
# A B C D E F G H I J K L M N O P Q R S T U V W X Y Z

Misc Unsigned Bands - Stephen Jerzak - Small Town Celebrity tab

First off, there are many ways to play this song. I believe he uses one guitar to play the intro.
But I'm gonna show you how to play it with two guitars since its a bit easier and more fun.

* x=Don't play that string *
* X=Mute and strum *

Intro - Guitar one:
e|--X------0------x---x---x---0---x---x---x---0---x---x---x---0------|
B|--X------0------x---x---x---0---x---x---x---0---x---x---x---0------|   \
G|--X------0------0---0---0---0---0---0---0---0---0---0---0---0------|    \
D|--X------2------2---2---2---x---2---2---2---x---2---2---2---x------|    / x4
A|--X------3------3---3---3---x---3---3---3---x---3---3---3---x------|   /
E|--X------x------3---2---0---x---3---2---0---x---3---2---0---x------|
  (x5)    (x6)  - ↑ REPEAT HERE. -                           (x5)

Intro - Guitar two:
e|---------------------------------------------------|
B|---------------------------------------------------|  \           
G|---------------------------------------------------|   \                         
D|---------------------------------------------------|   / x4   
A|---------3-3-3-3----------3---------3--------------|  /                        
E|-------------------3-2-0-----3-2-0-----0-3-3-------|                                 

     Start at the (x6) strumming pattern.
     End before the (x5) strumming pattern.


Link to Stephen Jerzak's Page : http://www.myspace.com/stephenjerzak
Tap to rate this tab
 
# A B C D E F G H I J K L M N O P Q R S T U V W X Y Z