Song name
# A B C D E F G H I J K L M N O P Q R S T U V W X Y Z

Misc Unsigned Bands - The Overunder - Circles And Squares tab

intro
|----------------------------------------------------|
|----------------------------------------------------|
|--3-------------------3-------------------3-----3---|
|--3x8--0----4-55-7----3x8--0----4-55-7----3-----3---|
|--1----0x4--4-55-7----1----0x4--4-55-7----1-----1---|
|-------0----4-55-7---------0----4-55-7--------------|

Verse - 0:16
|------------------|
|------------------|
|------------------|
|--3-----5----7----|x3
|--3x12--5x6--7x6--|
|--3-----5----7----|

Chorus - 0:38
|----------------------|
|----------------------|
|--3---------5---------|
|--3x4--3----5x4--0----|x4
|--1----3x4--3----0x4--|
|-------3---------0----|

Intro - 1:00
|--------------------|
|--------------------|
|--3-----------------|
|--3x8--0----4-55-7--|
|--1----0x4--4-55-7--|
|-------0----4-55-7--|

Verse 2 - 1:05 
|------------------| 
|------------------|
|--3-----5----7----|
|--3x12--5x6--7x6--|x4
|--1-----3----5----|
|------------------|

Chorus
|----------------------|
|----------------------|
|--3---------5---------|
|--3x4--3----5x4--0----|x4
|--1----3x4--3----0x4--|
|-------3---------0----|

intro
|----------------------------------------------------|
|----------------------------------------------------|
|--3-------------------3-------------------3-----3---|
|--3x8--0----4-55-7----3x8--0----4-55-7----3-----3---|
|--1----0x4--4-55-7----1----0x4--4-55-7----1-----1---|
|-------0----4-55-7---------0----4-55-7--------------|

Interlude
|----------------|     |----------------|
|----------------|     |----------------|
|--5---7---3-----|     |--5---7---3-----|
|--5---7---3x10--|x3   |--5---7---3x12--|
|--3---5---1-----|     |--3---5---1-----|
|----------------|     |----------------|
|------------------------------------|
|------------------------------------|
|----3--------3----3---------5-------|
|----3--------3----3----3----5x12----|
|----1--------1----1----3----3-------|
|-----------------------3------------|

Chorus - 0:38
|----------------------|
|----------------------|
|--3---------5---------|
|--3x4--3----5x4--0----|x4
|--1----3x4--3----0x4--|
|-------3---------0----|

Outro
|--------------------|
|--------------------|
|--3-----------------|
|--3x8--0----4-55-7--|
|--1----0x4--4-55-7--|
|-------0----4-55-7--|

Tap to rate this tab
 
# A B C D E F G H I J K L M N O P Q R S T U V W X Y Z